999
Outputted By AR_CAD Ver.1.5.4a
  0
SECTION
  2
HEADER
  9
$ACADVER
  1
AC1014
  9
$DWGCODEPAGE
  3
ANSI_932
  9
$EXTMIN
 10
0
 20
0
  9
$EXTMAX
 10
297
 20
210
  9
$INSBASE
 10
0.0
 20
0.0
 30
0.0
  9
$HANDLING
 70
     1
  9
$HANDSEED
  5
333
  9
$LTSCALE
 40
1
  0
ENDSEC
  0
SECTION
  2
TABLES
  0
TABLE
  2
VPORT
  5
1
100
AcDbSymbolTable
 70
     1
  0
VPORT
  5
30
100
AcDbSymbolTableRecord
100
AcDbViewportTableRecord
  2
*ACTIVE
 70
     0
 10
0.0
 20
0.0
 11
1.0
 21
1.0
 12
210.0
 22
148.5
 13
0.0
 23
0.0
 14
10.0
 24
10.0
 15
10.0
 25
10.0
 16
0.0
 26
0.0
 36
1.0
 17
0.0
 27
0.0
 37
0.0
 40
302.94
 41
1.333333
 42
50.0
 43
0.0
 44
0.0
 50
0.0
 51
0.0
 71
     0
 72
   100
 73
     1
 74
     1
 75
     0
 76
     0
 77
     0
 78
     0
  0
ENDTAB
  0
TABLE
  2
LTYPE
  5
2
100
AcDbSymbolTable
 70
     7
  0
LTYPE
  5
31
100
AcDbSymbolTableRecord
100
AcDbLinetypeTableRecord
  2
BYBLOCK
 70
    64
 3

 72
    65
 73
    0
 40
    0
  0
LTYPE
  5
32
100
AcDbSymbolTableRecord
100
AcDbLinetypeTableRecord
  2
BYLAYER
 70
    64
 3

 72
    65
 73
    0
 40
    0
  0
LTYPE
  5
33
100
AcDbSymbolTableRecord
100
AcDbLinetypeTableRecord
  2
CONTINUOUS
 70
    64
 3
CONTINUOUS
 72
    65
 73
    0
 40
    0
  0
LTYPE
  5
34
100
AcDbSymbolTableRecord
100
AcDbLinetypeTableRecord
  2
DASHED
 70
    64
 3

 72
    65
 73
    2
 40
    3.5
 49
    2.917
 74
    0
 49
    -0.583
 74
    0
  0
LTYPE
  5
35
100
AcDbSymbolTableRecord
100
AcDbLinetypeTableRecord
  2
DOT
 70
    64
 3

 72
    65
 73
    2
 40
    0.5
 49
    0.25
 74
    0
 49
    -0.25
 74
    0
  0
LTYPE
  5
36
100
AcDbSymbolTableRecord
100
AcDbLinetypeTableRecord
  2
DASHDOT
 70
    64
 3

 72
    65
 73
    4
 40
    3.5
 49
    1.84147386461011
 74
    0
 49
    -0.552842045129963
 74
    0
 49
    0.552842045129963
 74
    0
 49
    -0.552842045129963
 74
    0
  0
LTYPE
  5
37
100
AcDbSymbolTableRecord
100
AcDbLinetypeTableRecord
  2
DIVIDE
 70
    64
 3

 72
    65
 73
    6
 40
    3.5
 49
    1.4
 74
    0
 49
    -0.42
 74
    0
 49
    0.42
 74
    0
 49
    -0.42
 74
    0
 49
    0.42
 74
    0
 49
    -0.42
 74
    0
  0
LTYPE
  5
38
100
AcDbSymbolTableRecord
100
AcDbLinetypeTableRecord
  2
HIDDEN
 70
    64
 3

 72
    65
 73
    2
 40
    4
 49
    2
 74
    0
 49
    -2
 74
    0
  0
ENDTAB
  0
TABLE
  2
LAYER
  5
3
100
AcDbSymbolTable
 70
   257
  0
LAYER
  5
39
100
AcDbSymbolTableRecord
100
AcDbLayerTableRecord
  2
画層0
 70
    0
 62
7
  6
CONTINUOUS
  0
LAYER
  5
3A
100
AcDbSymbolTableRecord
100
AcDbLayerTableRecord
  2
画層1
 70
    0
 62
3
  6
CONTINUOUS
  0
LAYER
  5
3B
100
AcDbSymbolTableRecord
100
AcDbLayerTableRecord
  2
画層2
 70
    0
 62
9
  6
CONTINUOUS
  0
LAYER
  5
3C
100
AcDbSymbolTableRecord
100
AcDbLayerTableRecord
  2
画層3
 70
    0
 62
7
  6
CONTINUOUS
  0
LAYER
  5
3D
100
AcDbSymbolTableRecord
100
AcDbLayerTableRecord
  2
画層4
 70
    0
 62
6
  6
CONTINUOUS
  0
LAYER
  5
3E
100
AcDbSymbolTableRecord
100
AcDbLayerTableRecord
  2
画層5
 70
    0
 62
1
  6
CONTINUOUS
  0
LAYER
  5
3F
100
AcDbSymbolTableRecord
100
AcDbLayerTableRecord
  2
画層6
 70
    0
 62
7
  6
CONTINUOUS
  0
LAYER
  5
40
100
AcDbSymbolTableRecord
100
AcDbLayerTableRecord
  2
画層7
 70
    0
 62
51
  6
CONTINUOUS
  0
LAYER
  5
41
100
AcDbSymbolTableRecord
100
AcDbLayerTableRecord
  2
画層8
 70
    0
 62
61
  6
CONTINUOUS
  0
LAYER
  5
42
100
AcDbSymbolTableRecord
100
AcDbLayerTableRecord
  2
画層9
 70
    0
 62
111
  6
CONTINUOUS
  0
LAYER
  5
43
100
AcDbSymbolTableRecord
100
AcDbLayerTableRecord
  2
画層10
 70
    0
 62
91
  6
CONTINUOUS
  0
LAYER
  5
44
100
AcDbSymbolTableRecord
100
AcDbLayerTableRecord
  2
画層11
 70
    0
 62
131
  6
CONTINUOUS
  0
LAYER
  5
45
100
AcDbSymbolTableRecord
100
AcDbLayerTableRecord
  2
画層12
 70
    0
 62
161
  6
CONTINUOUS
  0
LAYER
  5
46
100
AcDbSymbolTableRecord
100
AcDbLayerTableRecord
  2
画層13
 70
    0
 62
5
  6
CONTINUOUS
  0
LAYER
  5
47
100
AcDbSymbolTableRecord
100
AcDbLayerTableRecord
  2
画層14
 70
    0
 62
7
  6
CONTINUOUS
  0
LAYER
  5
48
100
AcDbSymbolTableRecord
100
AcDbLayerTableRecord
  2
画層15
 70
    0
 62
11
  6
CONTINUOUS
  0
LAYER
  5
49
100
AcDbSymbolTableRecord
100
AcDbLayerTableRecord
  2
画層16
 70
    0
 62
7
  6
CONTINUOUS
  0
LAYER
  5
4A
100
AcDbSymbolTableRecord
100
AcDbLayerTableRecord
  2
画層17
 70
    0
 62
70
  6
CONTINUOUS
  0
LAYER
  5
4B
100
AcDbSymbolTableRecord
100
AcDbLayerTableRecord
  2
画層18
 70
    0
 62
211
  6
CONTINUOUS
  0
LAYER
  5
4C
100
AcDbSymbolTableRecord
100
AcDbLayerTableRecord
  2
画層19
 70
    0
 62
137
  6
CONTINUOUS
  0
LAYER
  5
4D
100
AcDbSymbolTableRecord
100
AcDbLayerTableRecord
  2
画層20
 70
    0
 62
4
  6
CONTINUOUS
  0
LAYER
  5
4E
100
AcDbSymbolTableRecord
100
AcDbLayerTableRecord
  2
画層21
 70
    0
 62
131
  6
CONTINUOUS
  0
LAYER
  5
4F
100
AcDbSymbolTableRecord
100
AcDbLayerTableRecord
  2
画層22
 70
    0
 62
4
  6
CONTINUOUS
  0
LAYER
  5
50
100
AcDbSymbolTableRecord
100
AcDbLayerTableRecord
  2
画層23
 70
    0
 62
4
  6
CONTINUOUS
  0
LAYER
  5
51
100
AcDbSymbolTableRecord
100
AcDbLayerTableRecord
  2
画層24
 70
    0
 62
7
  6
CONTINUOUS
  0
LAYER
  5
52
100
AcDbSymbolTableRecord
100
AcDbLayerTableRecord
  2
画層25
 70
    0
 62
7
  6
CONTINUOUS
  0
LAYER
  5
53
100
AcDbSymbolTableRecord
100
AcDbLayerTableRecord
  2
画層26
 70
    0
 62
7
  6
CONTINUOUS
  0
LAYER
  5
54
100
AcDbSymbolTableRecord
100
AcDbLayerTableRecord
  2
画層27
 70
    0
 62
7
  6
CONTINUOUS
  0
LAYER
  5
55
100
AcDbSymbolTableRecord
100
AcDbLayerTableRecord
  2
画層28
 70
    0
 62
7
  6
CONTINUOUS
  0
LAYER
  5
56
100
AcDbSymbolTableRecord
100
AcDbLayerTableRecord
  2
画層29
 70
    0
 62
7
  6
CONTINUOUS
  0
LAYER
  5
57
100
AcDbSymbolTableRecord
100
AcDbLayerTableRecord
  2
画層30
 70
    0
 62
7
  6
CONTINUOUS
  0
LAYER
  5
58
100
AcDbSymbolTableRecord
100
AcDbLayerTableRecord
  2
画層31
 70
    0
 62
7
  6
CONTINUOUS
  0
LAYER
  5
59
100
AcDbSymbolTableRecord
100
AcDbLayerTableRecord
  2
画層32
 70
    0
 62
7
  6
CONTINUOUS
  0
LAYER
  5
5A
100
AcDbSymbolTableRecord
100
AcDbLayerTableRecord
  2
画層33
 70
    0
 62
7
  6
CONTINUOUS
  0
LAYER
  5
5B
100
AcDbSymbolTableRecord
100
AcDbLayerTableRecord
  2
画層34
 70
    0
 62
7
  6
CONTINUOUS
  0
LAYER
  5
5C
100
AcDbSymbolTableRecord
100
AcDbLayerTableRecord
  2
画層35
 70
    0
 62
7
  6
CONTINUOUS
  0
LAYER
  5
5D
100
AcDbSymbolTableRecord
100
AcDbLayerTableRecord
  2
画層36
 70
    0
 62
7
  6
CONTINUOUS
  0
LAYER
  5
5E
100
AcDbSymbolTableRecord
100
AcDbLayerTableRecord
  2
画層37
 70
    0
 62
7
  6
CONTINUOUS
  0
LAYER
  5
5F
100
AcDbSymbolTableRecord
100
AcDbLayerTableRecord
  2
画層38
 70
    0
 62
7
  6
CONTINUOUS
  0
LAYER
  5
60
100
AcDbSymbolTableRecord
100
AcDbLayerTableRecord
  2
画層39
 70
    0
 62
7
  6
CONTINUOUS
  0
LAYER
  5
61
100
AcDbSymbolTableRecord
100
AcDbLayerTableRecord
  2
画層40
 70
    0
 62
7
  6
CONTINUOUS
  0
LAYER
  5
62
100
AcDbSymbolTableRecord
100
AcDbLayerTableRecord
  2
画層41
 70
    0
 62
7
  6
CONTINUOUS
  0
LAYER
  5
63
100
AcDbSymbolTableRecord
100
AcDbLayerTableRecord
  2
画層42
 70
    0
 62
7
  6
CONTINUOUS
  0
LAYER
  5
64
100
AcDbSymbolTableRecord
100
AcDbLayerTableRecord
  2
画層43
 70
    0
 62
7
  6
CONTINUOUS
  0
LAYER
  5
65
100
AcDbSymbolTableRecord
100
AcDbLayerTableRecord
  2
画層44
 70
    0
 62
7
  6
CONTINUOUS
  0
LAYER
  5
66
100
AcDbSymbolTableRecord
100
AcDbLayerTableRecord
  2
画層45
 70
    0
 62
7
  6
CONTINUOUS
  0
LAYER
  5
67
100
AcDbSymbolTableRecord
100
AcDbLayerTableRecord
  2
画層46
 70
    0
 62
7
  6
CONTINUOUS
  0
LAYER
  5
68
100
AcDbSymbolTableRecord
100
AcDbLayerTableRecord
  2
画層47
 70
    0
 62
7
  6
CONTINUOUS
  0
LAYER
  5
69
100
AcDbSymbolTableRecord
100
AcDbLayerTableRecord
  2
画層48
 70
    0
 62
7
  6
CONTINUOUS
  0
LAYER
  5
6A
100
AcDbSymbolTableRecord
100
AcDbLayerTableRecord
  2
画層49
 70
    0
 62
7
  6
CONTINUOUS
  0
LAYER
  5
6B
100
AcDbSymbolTableRecord
100
AcDbLayerTableRecord
  2
画層50
 70
    0
 62
7
  6
CONTINUOUS
  0
LAYER
  5
6C
100
AcDbSymbolTableRecord
100
AcDbLayerTableRecord
  2
画層51
 70
    0
 62
7
  6
CONTINUOUS
  0
LAYER
  5
6D
100
AcDbSymbolTableRecord
100
AcDbLayerTableRecord
  2
画層52
 70
    0
 62
7
  6
CONTINUOUS
  0
LAYER
  5
6E
100
AcDbSymbolTableRecord
100
AcDbLayerTableRecord
  2
画層53
 70
    0
 62
7
  6
CONTINUOUS
  0
LAYER
  5
6F
100
AcDbSymbolTableRecord
100
AcDbLayerTableRecord
  2
画層54
 70
    0
 62
7
  6
CONTINUOUS
  0
LAYER
  5
70
100
AcDbSymbolTableRecord
100
AcDbLayerTableRecord
  2
画層55
 70
    0
 62
7
  6
CONTINUOUS
  0
LAYER
  5
71
100
AcDbSymbolTableRecord
100
AcDbLayerTableRecord
  2
画層56
 70
    0
 62
7
  6
CONTINUOUS
  0
LAYER
  5
72
100
AcDbSymbolTableRecord
100
AcDbLayerTableRecord
  2
画層57
 70
    0
 62
7
  6
CONTINUOUS
  0
LAYER
  5
73
100
AcDbSymbolTableRecord
100
AcDbLayerTableRecord
  2
画層58
 70
    0
 62
7
  6
CONTINUOUS
  0
LAYER
  5
74
100
AcDbSymbolTableRecord
100
AcDbLayerTableRecord
  2
画層59
 70
    0
 62
7
  6
CONTINUOUS
  0
LAYER
  5
75
100
AcDbSymbolTableRecord
100
AcDbLayerTableRecord
  2
画層60
 70
    0
 62
7
  6
CONTINUOUS
  0
LAYER
  5
76
100
AcDbSymbolTableRecord
100
AcDbLayerTableRecord
  2
画層61
 70
    0
 62
7
  6
CONTINUOUS
  0
LAYER
  5
77
100
AcDbSymbolTableRecord
100
AcDbLayerTableRecord
  2
画層62
 70
    0
 62
7
  6
CONTINUOUS
  0
LAYER
  5
78
100
AcDbSymbolTableRecord
100
AcDbLayerTableRecord
  2
画層63
 70
    0
 62
7
  6
CONTINUOUS
  0
LAYER
  5
79
100
AcDbSymbolTableRecord
100
AcDbLayerTableRecord
  2
画層64
 70
    0
 62
7
  6
CONTINUOUS
  0
LAYER
  5
7A
100
AcDbSymbolTableRecord
100
AcDbLayerTableRecord
  2
画層65
 70
    0
 62
7
  6
CONTINUOUS
  0
LAYER
  5
7B
100
AcDbSymbolTableRecord
100
AcDbLayerTableRecord
  2
画層66
 70
    0
 62
7
  6
CONTINUOUS
  0
LAYER
  5
7C
100
AcDbSymbolTableRecord
100
AcDbLayerTableRecord
  2
画層67
 70
    0
 62
7
  6
CONTINUOUS
  0
LAYER
  5
7D
100
AcDbSymbolTableRecord
100
AcDbLayerTableRecord
  2
画層68
 70
    0
 62
7
  6
CONTINUOUS
  0
LAYER
  5
7E
100
AcDbSymbolTableRecord
100
AcDbLayerTableRecord
  2
画層69
 70
    0
 62
7
  6
CONTINUOUS
  0
LAYER
  5
7F
100
AcDbSymbolTableRecord
100
AcDbLayerTableRecord
  2
画層70
 70
    0
 62
7
  6
CONTINUOUS
  0
LAYER
  5
80
100
AcDbSymbolTableRecord
100
AcDbLayerTableRecord
  2
画層71
 70
    0
 62
7
  6
CONTINUOUS
  0
LAYER
  5
81
100
AcDbSymbolTableRecord
100
AcDbLayerTableRecord
  2
画層72
 70
    0
 62
7
  6
CONTINUOUS
  0
LAYER
  5
82
100
AcDbSymbolTableRecord
100
AcDbLayerTableRecord
  2
画層73
 70
    0
 62
7
  6
CONTINUOUS
  0
LAYER
  5
83
100
AcDbSymbolTableRecord
100
AcDbLayerTableRecord
  2
画層74
 70
    0
 62
7
  6
CONTINUOUS
  0
LAYER
  5
84
100
AcDbSymbolTableRecord
100
AcDbLayerTableRecord
  2
画層75
 70
    0
 62
7
  6
CONTINUOUS
  0
LAYER
  5
85
100
AcDbSymbolTableRecord
100
AcDbLayerTableRecord
  2
画層76
 70
    0
 62
7
  6
CONTINUOUS
  0
LAYER
  5
86
100
AcDbSymbolTableRecord
100
AcDbLayerTableRecord
  2
画層77
 70
    0
 62
7
  6
CONTINUOUS
  0
LAYER
  5
87
100
AcDbSymbolTableRecord
100
AcDbLayerTableRecord
  2
画層78
 70
    0
 62
7
  6
CONTINUOUS
  0
LAYER
  5
88
100
AcDbSymbolTableRecord
100
AcDbLayerTableRecord
  2
画層79
 70
    0
 62
7
  6
CONTINUOUS
  0
LAYER
  5
89
100
AcDbSymbolTableRecord
100
AcDbLayerTableRecord
  2
画層80
 70
    0
 62
7
  6
CONTINUOUS
  0
LAYER
  5
8A
100
AcDbSymbolTableRecord
100
AcDbLayerTableRecord
  2
画層81
 70
    0
 62
7
  6
CONTINUOUS
  0
LAYER
  5
8B
100
AcDbSymbolTableRecord
100
AcDbLayerTableRecord
  2
画層82
 70
    0
 62
7
  6
CONTINUOUS
  0
LAYER
  5
8C
100
AcDbSymbolTableRecord
100
AcDbLayerTableRecord
  2
画層83
 70
    0
 62
7
  6
CONTINUOUS
  0
LAYER
  5
8D
100
AcDbSymbolTableRecord
100
AcDbLayerTableRecord
  2
画層84
 70
    0
 62
7
  6
CONTINUOUS
  0
LAYER
  5
8E
100
AcDbSymbolTableRecord
100
AcDbLayerTableRecord
  2
画層85
 70
    0
 62
7
  6
CONTINUOUS
  0
LAYER
  5
8F
100
AcDbSymbolTableRecord
100
AcDbLayerTableRecord
  2
画層86
 70
    0
 62
7
  6
CONTINUOUS
  0
LAYER
  5
90
100
AcDbSymbolTableRecord
100
AcDbLayerTableRecord
  2
画層87
 70
    0
 62
7
  6
CONTINUOUS
  0
LAYER
  5
91
100
AcDbSymbolTableRecord
100
AcDbLayerTableRecord
  2
画層88
 70
    0
 62
7
  6
CONTINUOUS
  0
LAYER
  5
92
100
AcDbSymbolTableRecord
100
AcDbLayerTableRecord
  2
画層89
 70
    0
 62
7
  6
CONTINUOUS
  0
LAYER
  5
93
100
AcDbSymbolTableRecord
100
AcDbLayerTableRecord
  2
画層90
 70
    0
 62
7
  6
CONTINUOUS
  0
LAYER
  5
94
100
AcDbSymbolTableRecord
100
AcDbLayerTableRecord
  2
画層91
 70
    0
 62
7
  6
CONTINUOUS
  0
LAYER
  5
95
100
AcDbSymbolTableRecord
100
AcDbLayerTableRecord
  2
画層92
 70
    0
 62
7
  6
CONTINUOUS
  0
LAYER
  5
96
100
AcDbSymbolTableRecord
100
AcDbLayerTableRecord
  2
画層93
 70
    0
 62
7
  6
CONTINUOUS
  0
LAYER
  5
97
100
AcDbSymbolTableRecord
100
AcDbLayerTableRecord
  2
画層94
 70
    0
 62
7
  6
CONTINUOUS
  0
LAYER
  5
98
100
AcDbSymbolTableRecord
100
AcDbLayerTableRecord
  2
画層95
 70
    0
 62
7
  6
CONTINUOUS
  0
LAYER
  5
99
100
AcDbSymbolTableRecord
100
AcDbLayerTableRecord
  2
画層96
 70
    0
 62
7
  6
CONTINUOUS
  0
LAYER
  5
9A
100
AcDbSymbolTableRecord
100
AcDbLayerTableRecord
  2
画層97
 70
    0
 62
7
  6
CONTINUOUS
  0
LAYER
  5
9B
100
AcDbSymbolTableRecord
100
AcDbLayerTableRecord
  2
画層98
 70
    0
 62
7
  6
CONTINUOUS
  0
LAYER
  5
9C
100
AcDbSymbolTableRecord
100
AcDbLayerTableRecord
  2
画層99
 70
    0
 62
7
  6
CONTINUOUS
  0
LAYER
  5
9D
100
AcDbSymbolTableRecord
100
AcDbLayerTableRecord
  2
画層100
 70
    0
 62
7
  6
CONTINUOUS
  0
LAYER
  5
9E
100
AcDbSymbolTableRecord
100
AcDbLayerTableRecord
  2
画層101
 70
    0
 62
7
  6
CONTINUOUS
  0
LAYER
  5
9F
100
AcDbSymbolTableRecord
100
AcDbLayerTableRecord
  2
画層102
 70
    0
 62
7
  6
CONTINUOUS
  0
LAYER
  5
A0
100
AcDbSymbolTableRecord
100
AcDbLayerTableRecord
  2
画層103
 70
    0
 62
7
  6
CONTINUOUS
  0
LAYER
  5
A1
100
AcDbSymbolTableRecord
100
AcDbLayerTableRecord
  2
画層104
 70
    0
 62
7
  6
CONTINUOUS
  0
LAYER
  5
A2
100
AcDbSymbolTableRecord
100
AcDbLayerTableRecord
  2
画層105
 70
    0
 62
7
  6
CONTINUOUS
  0
LAYER
  5
A3
100
AcDbSymbolTableRecord
100
AcDbLayerTableRecord
  2
画層106
 70
    0
 62
7
  6
CONTINUOUS
  0
LAYER
  5
A4
100
AcDbSymbolTableRecord
100
AcDbLayerTableRecord
  2
画層107
 70
    0
 62
7
  6
CONTINUOUS
  0
LAYER
  5
A5
100
AcDbSymbolTableRecord
100
AcDbLayerTableRecord
  2
画層108
 70
    0
 62
7
  6
CONTINUOUS
  0
LAYER
  5
A6
100
AcDbSymbolTableRecord
100
AcDbLayerTableRecord
  2
画層109
 70
    0
 62
7
  6
CONTINUOUS
  0
LAYER
  5
A7
100
AcDbSymbolTableRecord
100
AcDbLayerTableRecord
  2
画層110
 70
    0
 62
7
  6
CONTINUOUS
  0
LAYER
  5
A8
100
AcDbSymbolTableRecord
100
AcDbLayerTableRecord
  2
画層111
 70
    0
 62
7
  6
CONTINUOUS
  0
LAYER
  5
A9
100
AcDbSymbolTableRecord
100
AcDbLayerTableRecord
  2
画層112
 70
    0
 62
7
  6
CONTINUOUS
  0
LAYER
  5
AA
100
AcDbSymbolTableRecord
100
AcDbLayerTableRecord
  2
画層113
 70
    0
 62
7
  6
CONTINUOUS
  0
LAYER
  5
AB
100
AcDbSymbolTableRecord
100
AcDbLayerTableRecord
  2
画層114
 70
    0
 62
7
  6
CONTINUOUS
  0
LAYER
  5
AC
100
AcDbSymbolTableRecord
100
AcDbLayerTableRecord
  2
画層115
 70
    0
 62
7
  6
CONTINUOUS
  0
LAYER
  5
AD
100
AcDbSymbolTableRecord
100
AcDbLayerTableRecord
  2
画層116
 70
    0
 62
7
  6
CONTINUOUS
  0
LAYER
  5
AE
100
AcDbSymbolTableRecord
100
AcDbLayerTableRecord
  2
画層117
 70
    0
 62
7
  6
CONTINUOUS
  0
LAYER
  5
AF
100
AcDbSymbolTableRecord
100
AcDbLayerTableRecord
  2
画層118
 70
    0
 62
7
  6
CONTINUOUS
  0
LAYER
  5
B0
100
AcDbSymbolTableRecord
100
AcDbLayerTableRecord
  2
画層119
 70
    0
 62
7
  6
CONTINUOUS
  0
LAYER
  5
B1
100
AcDbSymbolTableRecord
100
AcDbLayerTableRecord
  2
画層120
 70
    0
 62
7
  6
CONTINUOUS
  0
LAYER
  5
B2
100
AcDbSymbolTableRecord
100
AcDbLayerTableRecord
  2
画層121
 70
    0
 62
7
  6
CONTINUOUS
  0
LAYER
  5
B3
100
AcDbSymbolTableRecord
100
AcDbLayerTableRecord
  2
画層122
 70
    0
 62
7
  6
CONTINUOUS
  0
LAYER
  5
B4
100
AcDbSymbolTableRecord
100
AcDbLayerTableRecord
  2
画層123
 70
    0
 62
7
  6
CONTINUOUS
  0
LAYER
  5
B5
100
AcDbSymbolTableRecord
100
AcDbLayerTableRecord
  2
画層124
 70
    0
 62
7
  6
CONTINUOUS
  0
LAYER
  5
B6
100
AcDbSymbolTableRecord
100
AcDbLayerTableRecord
  2
画層125
 70
    0
 62
7
  6
CONTINUOUS
  0
LAYER
  5
B7
100
AcDbSymbolTableRecord
100
AcDbLayerTableRecord
  2
画層126
 70
    0
 62
7
  6
CONTINUOUS
  0
LAYER
  5
B8
100
AcDbSymbolTableRecord
100
AcDbLayerTableRecord
  2
画層127
 70
    0
 62
7
  6
CONTINUOUS
  0
LAYER
  5
B9
100
AcDbSymbolTableRecord
100
AcDbLayerTableRecord
  2
画層128
 70
    0
 62
7
  6
CONTINUOUS
  0
LAYER
  5
BA
100
AcDbSymbolTableRecord
100
AcDbLayerTableRecord
  2
画層129
 70
    0
 62
7
  6
CONTINUOUS
  0
LAYER
  5
BB
100
AcDbSymbolTableRecord
100
AcDbLayerTableRecord
  2
画層130
 70
    0
 62
7
  6
CONTINUOUS
  0
LAYER
  5
BC
100
AcDbSymbolTableRecord
100
AcDbLayerTableRecord
  2
画層131
 70
    0
 62
7
  6
CONTINUOUS
  0
LAYER
  5
BD
100
AcDbSymbolTableRecord
100
AcDbLayerTableRecord
  2
画層132
 70
    0
 62
7
  6
CONTINUOUS
  0
LAYER
  5
BE
100
AcDbSymbolTableRecord
100
AcDbLayerTableRecord
  2
画層133
 70
    0
 62
7
  6
CONTINUOUS
  0
LAYER
  5
BF
100
AcDbSymbolTableRecord
100
AcDbLayerTableRecord
  2
画層134
 70
    0
 62
7
  6
CONTINUOUS
  0
LAYER
  5
C0
100
AcDbSymbolTableRecord
100
AcDbLayerTableRecord
  2
画層135
 70
    0
 62
7
  6
CONTINUOUS
  0
LAYER
  5
C1
100
AcDbSymbolTableRecord
100
AcDbLayerTableRecord
  2
画層136
 70
    0
 62
7
  6
CONTINUOUS
  0
LAYER
  5
C2
100
AcDbSymbolTableRecord
100
AcDbLayerTableRecord
  2
画層137
 70
    0
 62
7
  6
CONTINUOUS
  0
LAYER
  5
C3
100
AcDbSymbolTableRecord
100
AcDbLayerTableRecord
  2
画層138
 70
    0
 62
7
  6
CONTINUOUS
  0
LAYER
  5
C4
100
AcDbSymbolTableRecord
100
AcDbLayerTableRecord
  2
画層139
 70
    0
 62
7
  6
CONTINUOUS
  0
LAYER
  5
C5
100
AcDbSymbolTableRecord
100
AcDbLayerTableRecord
  2
画層140
 70
    0
 62
7
  6
CONTINUOUS
  0
LAYER
  5
C6
100
AcDbSymbolTableRecord
100
AcDbLayerTableRecord
  2
画層141
 70
    0
 62
7
  6
CONTINUOUS
  0
LAYER
  5
C7
100
AcDbSymbolTableRecord
100
AcDbLayerTableRecord
  2
画層142
 70
    0
 62
7
  6
CONTINUOUS
  0
LAYER
  5
C8
100
AcDbSymbolTableRecord
100
AcDbLayerTableRecord
  2
画層143
 70
    0
 62
7
  6
CONTINUOUS
  0
LAYER
  5
C9
100
AcDbSymbolTableRecord
100
AcDbLayerTableRecord
  2
画層144
 70
    0
 62
7
  6
CONTINUOUS
  0
LAYER
  5
CA
100
AcDbSymbolTableRecord
100
AcDbLayerTableRecord
  2
画層145
 70
    0
 62
7
  6
CONTINUOUS
  0
LAYER
  5
CB
100
AcDbSymbolTableRecord
100
AcDbLayerTableRecord
  2
画層146
 70
    0
 62
7
  6
CONTINUOUS
  0
LAYER
  5
CC
100
AcDbSymbolTableRecord
100
AcDbLayerTableRecord
  2
画層147
 70
    0
 62
7
  6
CONTINUOUS
  0
LAYER
  5
CD
100
AcDbSymbolTableRecord
100
AcDbLayerTableRecord
  2
画層148
 70
    0
 62
7
  6
CONTINUOUS
  0
LAYER
  5
CE
100
AcDbSymbolTableRecord
100
AcDbLayerTableRecord
  2
画層149
 70
    0
 62
7
  6
CONTINUOUS
  0
LAYER
  5
CF
100
AcDbSymbolTableRecord
100
AcDbLayerTableRecord
  2
画層150
 70
    0
 62
7
  6
CONTINUOUS
  0
LAYER
  5
D0
100
AcDbSymbolTableRecord
100
AcDbLayerTableRecord
  2
画層151
 70
    0
 62
7
  6
CONTINUOUS
  0
LAYER
  5
D1
100
AcDbSymbolTableRecord
100
AcDbLayerTableRecord
  2
画層152
 70
    0
 62
7
  6
CONTINUOUS
  0
LAYER
  5
D2
100
AcDbSymbolTableRecord
100
AcDbLayerTableRecord
  2
画層153
 70
    0
 62
7
  6
CONTINUOUS
  0
LAYER
  5
D3
100
AcDbSymbolTableRecord
100
AcDbLayerTableRecord
  2
画層154
 70
    0
 62
7
  6
CONTINUOUS
  0
LAYER
  5
D4
100
AcDbSymbolTableRecord
100
AcDbLayerTableRecord
  2
画層155
 70
    0
 62
7
  6
CONTINUOUS
  0
LAYER
  5
D5
100
AcDbSymbolTableRecord
100
AcDbLayerTableRecord
  2
画層156
 70
    0
 62
7
  6
CONTINUOUS
  0
LAYER
  5
D6
100
AcDbSymbolTableRecord
100
AcDbLayerTableRecord
  2
画層157
 70
    0
 62
7
  6
CONTINUOUS
  0
LAYER
  5
D7
100
AcDbSymbolTableRecord
100
AcDbLayerTableRecord
  2
画層158
 70
    0
 62
7
  6
CONTINUOUS
  0
LAYER
  5
D8
100
AcDbSymbolTableRecord
100
AcDbLayerTableRecord
  2
画層159
 70
    0
 62
7
  6
CONTINUOUS
  0
LAYER
  5
D9
100
AcDbSymbolTableRecord
100
AcDbLayerTableRecord
  2
画層160
 70
    0
 62
7
  6
CONTINUOUS
  0
LAYER
  5
DA
100
AcDbSymbolTableRecord
100
AcDbLayerTableRecord
  2
画層161
 70
    0
 62
7
  6
CONTINUOUS
  0
LAYER
  5
DB
100
AcDbSymbolTableRecord
100
AcDbLayerTableRecord
  2
画層162
 70
    0
 62
7
  6
CONTINUOUS
  0
LAYER
  5
DC
100
AcDbSymbolTableRecord
100
AcDbLayerTableRecord
  2
画層163
 70
    0
 62
7
  6
CONTINUOUS
  0
LAYER
  5
DD
100
AcDbSymbolTableRecord
100
AcDbLayerTableRecord
  2
画層164
 70
    0
 62
7
  6
CONTINUOUS
  0
LAYER
  5
DE
100
AcDbSymbolTableRecord
100
AcDbLayerTableRecord
  2
画層165
 70
    0
 62
7
  6
CONTINUOUS
  0
LAYER
  5
DF
100
AcDbSymbolTableRecord
100
AcDbLayerTableRecord
  2
画層166
 70
    0
 62
7
  6
CONTINUOUS
  0
LAYER
  5
E0
100
AcDbSymbolTableRecord
100
AcDbLayerTableRecord
  2
画層167
 70
    0
 62
7
  6
CONTINUOUS
  0
LAYER
  5
E1
100
AcDbSymbolTableRecord
100
AcDbLayerTableRecord
  2
画層168
 70
    0
 62
7
  6
CONTINUOUS
  0
LAYER
  5
E2
100
AcDbSymbolTableRecord
100
AcDbLayerTableRecord
  2
画層169
 70
    0
 62
7
  6
CONTINUOUS
  0
LAYER
  5
E3
100
AcDbSymbolTableRecord
100
AcDbLayerTableRecord
  2
画層170
 70
    0
 62
7
  6
CONTINUOUS
  0
LAYER
  5
E4
100
AcDbSymbolTableRecord
100
AcDbLayerTableRecord
  2
画層171
 70
    0
 62
7
  6
CONTINUOUS
  0
LAYER
  5
E5
100
AcDbSymbolTableRecord
100
AcDbLayerTableRecord
  2
画層172
 70
    0
 62
7
  6
CONTINUOUS
  0
LAYER
  5
E6
100
AcDbSymbolTableRecord
100
AcDbLayerTableRecord
  2
画層173
 70
    0
 62
7
  6
CONTINUOUS
  0
LAYER
  5
E7
100
AcDbSymbolTableRecord
100
AcDbLayerTableRecord
  2
画層174
 70
    0
 62
7
  6
CONTINUOUS
  0
LAYER
  5
E8
100
AcDbSymbolTableRecord
100
AcDbLayerTableRecord
  2
画層175
 70
    0
 62
7
  6
CONTINUOUS
  0
LAYER
  5
E9
100
AcDbSymbolTableRecord
100
AcDbLayerTableRecord
  2
画層176
 70
    0
 62
7
  6
CONTINUOUS
  0
LAYER
  5
EA
100
AcDbSymbolTableRecord
100
AcDbLayerTableRecord
  2
画層177
 70
    0
 62
7
  6
CONTINUOUS
  0
LAYER
  5
EB
100
AcDbSymbolTableRecord
100
AcDbLayerTableRecord
  2
画層178
 70
    0
 62
7
  6
CONTINUOUS
  0
LAYER
  5
EC
100
AcDbSymbolTableRecord
100
AcDbLayerTableRecord
  2
画層179
 70
    0
 62
7
  6
CONTINUOUS
  0
LAYER
  5
ED
100
AcDbSymbolTableRecord
100
AcDbLayerTableRecord
  2
画層180
 70
    0
 62
7
  6
CONTINUOUS
  0
LAYER
  5
EE
100
AcDbSymbolTableRecord
100
AcDbLayerTableRecord
  2
画層181
 70
    0
 62
7
  6
CONTINUOUS
  0
LAYER
  5
EF
100
AcDbSymbolTableRecord
100
AcDbLayerTableRecord
  2
画層182
 70
    0
 62
7
  6
CONTINUOUS
  0
LAYER
  5
F0
100
AcDbSymbolTableRecord
100
AcDbLayerTableRecord
  2
画層183
 70
    0
 62
7
  6
CONTINUOUS
  0
LAYER
  5
F1
100
AcDbSymbolTableRecord
100
AcDbLayerTableRecord
  2
画層184
 70
    0
 62
7
  6
CONTINUOUS
  0
LAYER
  5
F2
100
AcDbSymbolTableRecord
100
AcDbLayerTableRecord
  2
画層185
 70
    0
 62
7
  6
CONTINUOUS
  0
LAYER
  5
F3
100
AcDbSymbolTableRecord
100
AcDbLayerTableRecord
  2
画層186
 70
    0
 62
7
  6
CONTINUOUS
  0
LAYER
  5
F4
100
AcDbSymbolTableRecord
100
AcDbLayerTableRecord
  2
画層187
 70
    0
 62
7
  6
CONTINUOUS
  0
LAYER
  5
F5
100
AcDbSymbolTableRecord
100
AcDbLayerTableRecord
  2
画層188
 70
    0
 62
7
  6
CONTINUOUS
  0
LAYER
  5
F6
100
AcDbSymbolTableRecord
100
AcDbLayerTableRecord
  2
画層189
 70
    0
 62
7
  6
CONTINUOUS
  0
LAYER
  5
F7
100
AcDbSymbolTableRecord
100
AcDbLayerTableRecord
  2
画層190
 70
    0
 62
7
  6
CONTINUOUS
  0
LAYER
  5
F8
100
AcDbSymbolTableRecord
100
AcDbLayerTableRecord
  2
画層191
 70
    0
 62
7
  6
CONTINUOUS
  0
LAYER
  5
F9
100
AcDbSymbolTableRecord
100
AcDbLayerTableRecord
  2
画層192
 70
    0
 62
7
  6
CONTINUOUS
  0
LAYER
  5
FA
100
AcDbSymbolTableRecord
100
AcDbLayerTableRecord
  2
画層193
 70
    0
 62
7
  6
CONTINUOUS
  0
LAYER
  5
FB
100
AcDbSymbolTableRecord
100
AcDbLayerTableRecord
  2
画層194
 70
    0
 62
7
  6
CONTINUOUS
  0
LAYER
  5
FC
100
AcDbSymbolTableRecord
100
AcDbLayerTableRecord
  2
画層195
 70
    0
 62
7
  6
CONTINUOUS
  0
LAYER
  5
FD
100
AcDbSymbolTableRecord
100
AcDbLayerTableRecord
  2
画層196
 70
    0
 62
7
  6
CONTINUOUS
  0
LAYER
  5
FE
100
AcDbSymbolTableRecord
100
AcDbLayerTableRecord
  2
画層197
 70
    0
 62
7
  6
CONTINUOUS
  0
LAYER
  5
FF
100
AcDbSymbolTableRecord
100
AcDbLayerTableRecord
  2
画層198
 70
    0
 62
7
  6
CONTINUOUS
  0
LAYER
  5
100
100
AcDbSymbolTableRecord
100
AcDbLayerTableRecord
  2
画層199
 70
    0
 62
7
  6
CONTINUOUS
  0
LAYER
  5
101
100
AcDbSymbolTableRecord
100
AcDbLayerTableRecord
  2
画層200
 70
    0
 62
7
  6
CONTINUOUS
  0
LAYER
  5
102
100
AcDbSymbolTableRecord
100
AcDbLayerTableRecord
  2
画層201
 70
    0
 62
7
  6
CONTINUOUS
  0
LAYER
  5
103
100
AcDbSymbolTableRecord
100
AcDbLayerTableRecord
  2
画層202
 70
    0
 62
7
  6
CONTINUOUS
  0
LAYER
  5
104
100
AcDbSymbolTableRecord
100
AcDbLayerTableRecord
  2
画層203
 70
    0
 62
7
  6
CONTINUOUS
  0
LAYER
  5
105
100
AcDbSymbolTableRecord
100
AcDbLayerTableRecord
  2
画層204
 70
    0
 62
7
  6
CONTINUOUS
  0
LAYER
  5
106
100
AcDbSymbolTableRecord
100
AcDbLayerTableRecord
  2
画層205
 70
    0
 62
7
  6
CONTINUOUS
  0
LAYER
  5
107
100
AcDbSymbolTableRecord
100
AcDbLayerTableRecord
  2
画層206
 70
    0
 62
7
  6
CONTINUOUS
  0
LAYER
  5
108
100
AcDbSymbolTableRecord
100
AcDbLayerTableRecord
  2
画層207
 70
    0
 62
7
  6
CONTINUOUS
  0
LAYER
  5
109
100
AcDbSymbolTableRecord
100
AcDbLayerTableRecord
  2
画層208
 70
    0
 62
7
  6
CONTINUOUS
  0
LAYER
  5
10A
100
AcDbSymbolTableRecord
100
AcDbLayerTableRecord
  2
画層209
 70
    0
 62
7
  6
CONTINUOUS
  0
LAYER
  5
10B
100
AcDbSymbolTableRecord
100
AcDbLayerTableRecord
  2
画層210
 70
    0
 62
7
  6
CONTINUOUS
  0
LAYER
  5
10C
100
AcDbSymbolTableRecord
100
AcDbLayerTableRecord
  2
画層211
 70
    0
 62
7
  6
CONTINUOUS
  0
LAYER
  5
10D
100
AcDbSymbolTableRecord
100
AcDbLayerTableRecord
  2
画層212
 70
    0
 62
7
  6
CONTINUOUS
  0
LAYER
  5
10E
100
AcDbSymbolTableRecord
100
AcDbLayerTableRecord
  2
画層213
 70
    0
 62
7
  6
CONTINUOUS
  0
LAYER
  5
10F
100
AcDbSymbolTableRecord
100
AcDbLayerTableRecord
  2
画層214
 70
    0
 62
7
  6
CONTINUOUS
  0
LAYER
  5
110
100
AcDbSymbolTableRecord
100
AcDbLayerTableRecord
  2
画層215
 70
    0
 62
7
  6
CONTINUOUS
  0
LAYER
  5
111
100
AcDbSymbolTableRecord
100
AcDbLayerTableRecord
  2
画層216
 70
    0
 62
7
  6
CONTINUOUS
  0
LAYER
  5
112
100
AcDbSymbolTableRecord
100
AcDbLayerTableRecord
  2
画層217
 70
    0
 62
7
  6
CONTINUOUS
  0
LAYER
  5
113
100
AcDbSymbolTableRecord
100
AcDbLayerTableRecord
  2
画層218
 70
    0
 62
7
  6
CONTINUOUS
  0
LAYER
  5
114
100
AcDbSymbolTableRecord
100
AcDbLayerTableRecord
  2
画層219
 70
    0
 62
7
  6
CONTINUOUS
  0
LAYER
  5
115
100
AcDbSymbolTableRecord
100
AcDbLayerTableRecord
  2
画層220
 70
    0
 62
7
  6
CONTINUOUS
  0
LAYER
  5
116
100
AcDbSymbolTableRecord
100
AcDbLayerTableRecord
  2
画層221
 70
    0
 62
7
  6
CONTINUOUS
  0
LAYER
  5
117
100
AcDbSymbolTableRecord
100
AcDbLayerTableRecord
  2
画層222
 70
    0
 62
7
  6
CONTINUOUS
  0
LAYER
  5
118
100
AcDbSymbolTableRecord
100
AcDbLayerTableRecord
  2
画層223
 70
    0
 62
7
  6
CONTINUOUS
  0
LAYER
  5
119
100
AcDbSymbolTableRecord
100
AcDbLayerTableRecord
  2
画層224
 70
    0
 62
7
  6
CONTINUOUS
  0
LAYER
  5
11A
100
AcDbSymbolTableRecord
100
AcDbLayerTableRecord
  2
画層225
 70
    0
 62
7
  6
CONTINUOUS
  0
LAYER
  5
11B
100
AcDbSymbolTableRecord
100
AcDbLayerTableRecord
  2
画層226
 70
    0
 62
7
  6
CONTINUOUS
  0
LAYER
  5
11C
100
AcDbSymbolTableRecord
100
AcDbLayerTableRecord
  2
画層227
 70
    0
 62
7
  6
CONTINUOUS
  0
LAYER
  5
11D
100
AcDbSymbolTableRecord
100
AcDbLayerTableRecord
  2
画層228
 70
    0
 62
7
  6
CONTINUOUS
  0
LAYER
  5
11E
100
AcDbSymbolTableRecord
100
AcDbLayerTableRecord
  2
画層229
 70
    0
 62
7
  6
CONTINUOUS
  0
LAYER
  5
11F
100
AcDbSymbolTableRecord
100
AcDbLayerTableRecord
  2
画層230
 70
    0
 62
7
  6
CONTINUOUS
  0
LAYER
  5
120
100
AcDbSymbolTableRecord
100
AcDbLayerTableRecord
  2
画層231
 70
    0
 62
7
  6
CONTINUOUS
  0
LAYER
  5
121
100
AcDbSymbolTableRecord
100
AcDbLayerTableRecord
  2
画層232
 70
    0
 62
7
  6
CONTINUOUS
  0
LAYER
  5
122
100
AcDbSymbolTableRecord
100
AcDbLayerTableRecord
  2
画層233
 70
    0
 62
7
  6
CONTINUOUS
  0
LAYER
  5
123
100
AcDbSymbolTableRecord
100
AcDbLayerTableRecord
  2
画層234
 70
    0
 62
7
  6
CONTINUOUS
  0
LAYER
  5
124
100
AcDbSymbolTableRecord
100
AcDbLayerTableRecord
  2
画層235
 70
    0
 62
7
  6
CONTINUOUS
  0
LAYER
  5
125
100
AcDbSymbolTableRecord
100
AcDbLayerTableRecord
  2
画層236
 70
    0
 62
7
  6
CONTINUOUS
  0
LAYER
  5
126
100
AcDbSymbolTableRecord
100
AcDbLayerTableRecord
  2
画層237
 70
    0
 62
7
  6
CONTINUOUS
  0
LAYER
  5
127
100
AcDbSymbolTableRecord
100
AcDbLayerTableRecord
  2
画層238
 70
    0
 62
7
  6
CONTINUOUS
  0
LAYER
  5
128
100
AcDbSymbolTableRecord
100
AcDbLayerTableRecord
  2
画層239
 70
    0
 62
7
  6
CONTINUOUS
  0
LAYER
  5
129
100
AcDbSymbolTableRecord
100
AcDbLayerTableRecord
  2
画層240
 70
    0
 62
7
  6
CONTINUOUS
  0
LAYER
  5
12A
100
AcDbSymbolTableRecord
100
AcDbLayerTableRecord
  2
画層241
 70
    0
 62
7
  6
CONTINUOUS
  0
LAYER
  5
12B
100
AcDbSymbolTableRecord
100
AcDbLayerTableRecord
  2
画層242
 70
    0
 62
7
  6
CONTINUOUS
  0
LAYER
  5
12C
100
AcDbSymbolTableRecord
100
AcDbLayerTableRecord
  2
画層243
 70
    0
 62
7
  6
CONTINUOUS
  0
LAYER
  5
12D
100
AcDbSymbolTableRecord
100
AcDbLayerTableRecord
  2
画層244
 70
    0
 62
7
  6
CONTINUOUS
  0
LAYER
  5
12E
100
AcDbSymbolTableRecord
100
AcDbLayerTableRecord
  2
画層245
 70
    0
 62
7
  6
CONTINUOUS
  0
LAYER
  5
12F
100
AcDbSymbolTableRecord
100
AcDbLayerTableRecord
  2
画層246
 70
    0
 62
7
  6
CONTINUOUS
  0
LAYER
  5
130
100
AcDbSymbolTableRecord
100
AcDbLayerTableRecord
  2
画層247
 70
    0
 62
7
  6
CONTINUOUS
  0
LAYER
  5
131
100
AcDbSymbolTableRecord
100
AcDbLayerTableRecord
  2
画層248
 70
    0
 62
7
  6
CONTINUOUS
  0
LAYER
  5
132
100
AcDbSymbolTableRecord
100
AcDbLayerTableRecord
  2
画層249
 70
    0
 62
7
  6
CONTINUOUS
  0
LAYER
  5
133
100
AcDbSymbolTableRecord
100
AcDbLayerTableRecord
  2
画層250
 70
    0
 62
7
  6
CONTINUOUS
  0
LAYER
  5
134
100
AcDbSymbolTableRecord
100
AcDbLayerTableRecord
  2
画層251
 70
    0
 62
7
  6
CONTINUOUS
  0
LAYER
  5
135
100
AcDbSymbolTableRecord
100
AcDbLayerTableRecord
  2
画層252
 70
    0
 62
7
  6
CONTINUOUS
  0
LAYER
  5
136
100
AcDbSymbolTableRecord
100
AcDbLayerTableRecord
  2
画層253
 70
    0
 62
7
  6
CONTINUOUS
  0
LAYER
  5
137
100
AcDbSymbolTableRecord
100
AcDbLayerTableRecord
  2
画層254
 70
    0
 62
7
  6
CONTINUOUS
  0
LAYER
  5
138
100
AcDbSymbolTableRecord
100
AcDbLayerTableRecord
  2
画層255
 70
    0
 62
7
  6
CONTINUOUS
  0
LAYER
  5
139
100
AcDbSymbolTableRecord
100
AcDbLayerTableRecord
  2
0
 70
   64
 62
    7
  6
CONTINUOUS
  0
ENDTAB
  0
TABLE
  2
STYLE
  5
4
100
AcDbSymbolTable
 70
     1
  0
STYLE
  5
13A
100
AcDbSymbolTableRecord
100
AcDbTextStyleTableRecord
  2
Standard
 70
     0
 40
0.0
 41
1.0
 50
0.0
 71
     0
 42
3.2
  3
TXT
  4
BIGFONT
  0
STYLE
  5
13B
100
AcDbSymbolTableRecord
100
AcDbTextStyleTableRecord
  2
Font_0
 70
     0
 40
0.0
 41
1.0
 50
0.0
 71
     0
 42
3.2
  3
MS Gothic.ttf
  4

1001
ACAD
1000
MS Gothic
1071
  32817
  0
ENDTAB
  0
TABLE
  2
VIEW
  5
5
100
AcDbSymbolTable
 70
     0
  0
ENDTAB
  0
TABLE
  2
UCS
  5
6
100
AcDbSymbolTable
 70
     0
  0
ENDTAB
  0
TABLE
  2
APPID
  5
7
100
AcDbSymbolTable
 70
     1
  0
APPID
  5
13C
100
AcDbSymbolTableRecord
100
AcDbRegAppTableRecord
  2
ACAD
 70
     0
  0
ENDTAB
  0
TABLE
  2
DIMSTYLE
  5
8
100
AcDbSymbolTable
 70
     1
  0
DIMSTYLE
105
2A
100
AcDbSymbolTableRecord
100
AcDbDimStyleTableRecord
  2
STANDARD
 70
     0
  3

  4

  5

  6

  7

 40
1.0
 41
2.5
 42
2.0
 43
7.0
 44
1.25
 45
0.0
 46
0.0
 47
0.0
 48
0.0
 71
     0
 72
     0
 73
     0
 74
     0
 75
     0
 76
     0
 77
     1
 78
     0
140
2.5
141
2.5
142
0.0
143
0.0394
144
1.0
145
0.0
146
1.0
147
1.0
170
     0
171
     2
172
     0
173
     0
174
     1
175
     0
176
     0
177
     0
178
     0
270
     2
271
     2
272
     4
273
     2
274
     2
275
     0
280
     0
281
     0
282
     0
283
     1
284
     0
285
     0
286
     0
287
     3
288
     0
  0
ENDTAB
  0
TABLE
  2
BLOCK_RECORD
  5
9
100
AcDbSymbolTable
 70
     0
  0
BLOCK_RECORD
  5
13D
100
AcDbSymbolTableRecord
100
AcDbBlockTableRecord
  2
*MODEL_SPACE
  0
BLOCK_RECORD
  5
13E
100
AcDbSymbolTableRecord
100
AcDbBlockTableRecord
  2
*PAPER_SPACE
  0
ENDTAB
  0
ENDSEC
  0
SECTION
  2
BLOCKS
  0
BLOCK
  5
140
100
AcDbEntity
  8
0
100
AcDbBlockBegin
2
*MODEL_SPACE
 70
     0
 10
0.0
 20
0.0
 30
0.0
  3
*MODEL_SPACE
  1

  0
ENDBLK
  5
141
100
AcDbEntity
  8
画層0
100
AcDbBlockEnd
  0
BLOCK
  5
142
100
AcDbEntity
 67
     1
  8
画層0
100
AcDbBlockBegin
  2
*PAPER_SPACE
 70
     0
 10
0.0
 20
0.0
 30
0.0
  3
*PAPER_SPACE
  1

  0
ENDBLK
  5
143
100
AcDbEntity
 67
     1
  8
画層0
100
AcDbBlockEnd
  0
ENDSEC
  0
SECTION
  2
ENTITIES
  0
LINE
  5
144
100
AcDbEntity
  8
画層0
100
AcDbLine
  6
CONTINUOUS
 10
100
 20
130
 11
100
 21
110
  0
LINE
  5
145
100
AcDbEntity
  8
画層0
100
AcDbLine
  6
CONTINUOUS
 10
95
 20
125
 11
95
 21
115
  0
LINE
  5
146
100
AcDbEntity
  8
画層0
100
AcDbLine
  6
CONTINUOUS
 10
100
 20
120
 11
110
 21
120
  0
LINE
  5
147
100
AcDbEntity
  8
画層0
100
AcDbLine
  6
CONTINUOUS
 10
100
 20
127.5
 11
110
 21
127.5
  0
LINE
  5
148
100
AcDbEntity
  8
画層0
100
AcDbLine
  6
CONTINUOUS
 10
110
 20
112.5
 11
100
 21
112.5
  0
LINE
  5
149
100
AcDbEntity
  8
画層0
100
AcDbLine
  6
CONTINUOUS
 10
95
 20
120
 11
90
 21
120
  0
LINE
  5
14A
100
AcDbEntity
  8
画層0
100
AcDbLine
  6
CONTINUOUS
 10
110
 20
120
 11
105
 21
118.75
  0
LINE
  5
14B
100
AcDbEntity
  8
画層0
100
AcDbLine
  6
CONTINUOUS
 10
110
 20
120
 11
105
 21
121.25
  0
LINE
  5
14C
100
AcDbEntity
  8
画層0
100
AcDbLine
  6
CONTINUOUS
 10
110
 20
112.5
 11
110
 21
110
  0
LINE
  5
14D
100
AcDbEntity
  8
画層0
100
AcDbLine
  6
CONTINUOUS
 10
230
 20
130
 11
250
 21
130
  0
LINE
  5
14E
100
AcDbEntity
  8
画層0
100
AcDbLine
  6
CONTINUOUS
 10
235
 20
135
 11
245
 21
135
  0
LINE
  5
14F
100
AcDbEntity
  8
画層0
100
AcDbLine
  6
CONTINUOUS
 10
240
 20
135
 11
240
 21
140
  0
LINE
  5
150
100
AcDbEntity
  8
画層0
100
AcDbLine
  6
CONTINUOUS
 10
99.5
 20
130
 11
99.5
 21
110
  0
LINE
  5
151
100
AcDbEntity
  8
画層0
100
AcDbLine
  6
CONTINUOUS
 10
100.5
 20
130
 11
100.5
 21
110
  0
LINE
  5
152
100
AcDbEntity
  8
画層0
100
AcDbLine
  6
CONTINUOUS
 10
94.5
 20
125
 11
94.5
 21
115
  0
LINE
  5
153
100
AcDbEntity
  8
画層0
100
AcDbLine
  6
CONTINUOUS
 10
95.5
 20
125
 11
95.5
 21
115
  0
LWPOLYLINE
  5
154
100
AcDbEntity
  8
画層0
100
AcDbPolyline
  6
CONTINUOUS
 90
     4
 70
     1
 10
99.5
  20
110
 10
100.5
  20
110
 10
100.5
  20
130
 10
99.5
  20
130
  0
SOLID
  5
155
100
AcDbEntity
  8
画層0
100
AcDbTrace
 10
99.5
 20
110
 30
0.0
 11
100.5
 21
110
 31
0.0
 12
99.5
 22
130
 32
0.0
 13
100.5
 23
130
 33
0.0
  0
LWPOLYLINE
  5
156
100
AcDbEntity
  8
画層0
100
AcDbPolyline
  6
CONTINUOUS
 90
     4
 70
     1
 10
94.5
  20
115
 10
95.5
  20
115
 10
95.5
  20
125
 10
94.5
  20
125
  0
SOLID
  5
157
100
AcDbEntity
  8
画層0
100
AcDbTrace
 10
94.5
 20
115
 30
0.0
 11
95.5
 21
115
 31
0.0
 12
94.5
 22
125
 32
0.0
 13
95.5
 23
125
 33
0.0
  0
LWPOLYLINE
  5
158
100
AcDbEntity
  8
画層0
100
AcDbPolyline
  6
CONTINUOUS
 90
     3
 70
     1
 10
110
  20
120
 10
105
  20
121.25
 10
105
  20
118.75
  0
SOLID
  5
159
100
AcDbEntity
  8
画層0
100
AcDbTrace
 10
110
 20
120
 30
0.0
 11
105
 21
121.25
 31
0.0
 12
105
 22
118.75
 32
0.0
 13
105
 23
118.75
 33
0.0
  0
LINE
  5
15A
100
AcDbEntity
  8
画層0
100
AcDbLine
  6
CONTINUOUS
 10
247.5
 20
120
 11
247.5
 21
130
  0
LINE
  5
15B
100
AcDbEntity
  8
画層0
100
AcDbLine
  6
CONTINUOUS
 10
232.5
 20
120
 11
232.5
 21
130
  0
LINE
  5
15C
100
AcDbEntity
  8
画層0
100
AcDbLine
  6
CONTINUOUS
 10
240
 20
120
 11
240
 21
130
  0
LWPOLYLINE
  5
15D
100
AcDbEntity
  8
画層0
100
AcDbPolyline
  6
CONTINUOUS
 90
     3
 70
     1
 10
238.75
  20
125
 10
241.25
  20
125
 10
240
  20
130
  0
SOLID
  5
15E
100
AcDbEntity
  8
画層0
100
AcDbTrace
 10
238.75
 20
125
 30
0.0
 11
241.25
 21
125
 31
0.0
 12
240
 22
130
 32
0.0
 13
240
 23
130
 33
0.0
  0
LINE
  5
15F
100
AcDbEntity
  8
画層0
100
AcDbLine
  6
CONTINUOUS
 10
250
 20
130.5
 11
230
 21
130.5
  0
LINE
  5
160
100
AcDbEntity
  8
画層0
100
AcDbLine
  6
CONTINUOUS
 10
250
 20
129.5
 11
230
 21
129.5
  0
LINE
  5
161
100
AcDbEntity
  8
画層0
100
AcDbLine
  6
CONTINUOUS
 10
245
 20
135.5
 11
235
 21
135.5
  0
LINE
  5
162
100
AcDbEntity
  8
画層0
100
AcDbLine
  6
CONTINUOUS
 10
245
 20
134.5
 11
235
 21
134.5
  0
LWPOLYLINE
  5
163
100
AcDbEntity
  8
画層0
100
AcDbPolyline
  6
CONTINUOUS
 90
     4
 70
     1
 10
235
  20
135.5
 10
235
  20
134.5
 10
245
  20
134.5
 10
245
  20
135.5
  0
SOLID
  5
164
100
AcDbEntity
  8
画層0
100
AcDbTrace
 10
235
 20
135.5
 30
0.0
 11
235
 21
134.5
 31
0.0
 12
245
 22
135.5
 32
0.0
 13
245
 23
134.5
 33
0.0
  0
LWPOLYLINE
  5
165
100
AcDbEntity
  8
画層0
100
AcDbPolyline
  6
CONTINUOUS
 90
     4
 70
     1
 10
230
  20
130.5
 10
230
  20
129.5
 10
250
  20
129.5
 10
250
  20
130.5
  0
SOLID
  5
166
100
AcDbEntity
  8
画層0
100
AcDbTrace
 10
230
 20
130.5
 30
0.0
 11
230
 21
129.5
 31
0.0
 12
250
 22
130.5
 32
0.0
 13
250
 23
129.5
 33
0.0
  0
LINE
  5
167
100
AcDbEntity
  8
画層0
100
AcDbLine
  6
CONTINUOUS
 10
232.5
 20
120
 11
230
 21
120
  0
LINE
  5
168
100
AcDbEntity
  8
画層0
100
AcDbLine
  6
CONTINUOUS
 10
125
 20
35
 11
115
 21
35
  0
LINE
  5
169
100
AcDbEntity
  8
画層0
100
AcDbLine
  6
CONTINUOUS
 10
125
 20
35
 11
121.666666666667
 21
30
  0
LINE
  5
16A
100
AcDbEntity
  8
画層0
100
AcDbLine
  6
CONTINUOUS
 10
115
 20
30
 11
118.333333333333
 21
35
  0
LINE
  5
16B
100
AcDbEntity
  8
画層0
100
AcDbLine
  6
CONTINUOUS
 10
118.333333333333
 20
30
 11
121.666666666667
 21
35
  0
LINE
  5
16C
100
AcDbEntity
  8
画層0
100
AcDbLine
  6
CONTINUOUS
 10
120
 20
40
 11
120
 21
35
  0
LINE
  5
16D
100
AcDbEntity
  8
画層0
100
AcDbLine
  6
CONTINUOUS
 10
115
 20
34.5
 11
125
 21
34.5
  0
LINE
  5
16E
100
AcDbEntity
  8
画層0
100
AcDbLine
  6
CONTINUOUS
 10
115
 20
35.5
 11
125
 21
35.5
  0
LWPOLYLINE
  5
16F
100
AcDbEntity
  8
画層0
100
AcDbPolyline
  6
CONTINUOUS
 90
     4
 70
     1
 10
125
  20
34.5
 10
115
  20
34.5
 10
115
  20
35.5
 10
125
  20
35.5
  0
SOLID
  5
170
100
AcDbEntity
  8
画層0
100
AcDbTrace
 10
125
 20
34.5
 30
0.0
 11
115
 21
34.5
 31
0.0
 12
125
 22
35.5
 32
0.0
 13
115
 23
35.5
 33
0.0
  0
LINE
  5
171
100
AcDbEntity
  8
画層0
100
AcDbLine
  6
CONTINUOUS
 10
247.5
 20
120
 11
250
 21
120
  0
LINE
  5
172
100
AcDbEntity
  8
画層0
100
AcDbLine
  6
CONTINUOUS
 10
100
 20
70
 11
100
 21
90
  0
LINE
  5
173
100
AcDbEntity
  8
画層0
100
AcDbLine
  6
CONTINUOUS
 10
95
 20
75
 11
95
 21
85
  0
LINE
  5
174
100
AcDbEntity
  8
画層0
100
AcDbLine
  6
CONTINUOUS
 10
95
 20
80
 11
90
 21
80
  0
LINE
  5
175
100
AcDbEntity
  8
画層0
100
AcDbLine
  6
CONTINUOUS
 10
110
 20
87.5
 11
100
 21
87.5
  0
LINE
  5
176
100
AcDbEntity
  8
画層0
100
AcDbLine
  6
CONTINUOUS
 10
110
 20
72.5
 11
100
 21
72.5
  0
LINE
  5
177
100
AcDbEntity
  8
画層0
100
AcDbLine
  6
CONTINUOUS
 10
110
 20
80
 11
100
 21
80
  0
LWPOLYLINE
  5
178
100
AcDbEntity
  8
画層0
100
AcDbPolyline
  6
CONTINUOUS
 90
     3
 70
     1
 10
105
  20
78.75
 10
105
  20
81.25
 10
100
  20
80
  0
SOLID
  5
179
100
AcDbEntity
  8
画層0
100
AcDbTrace
 10
105
 20
78.75
 30
0.0
 11
105
 21
81.25
 31
0.0
 12
100
 22
80
 32
0.0
 13
100
 23
80
 33
0.0
  0
LINE
  5
17A
100
AcDbEntity
  8
画層0
100
AcDbLine
  6
CONTINUOUS
 10
99.5
 20
90
 11
99.5
 21
70
  0
LINE
  5
17B
100
AcDbEntity
  8
画層0
100
AcDbLine
  6
CONTINUOUS
 10
100.5
 20
90
 11
100.5
 21
70
  0
LINE
  5
17C
100
AcDbEntity
  8
画層0
100
AcDbLine
  6
CONTINUOUS
 10
94.5
 20
85
 11
94.5
 21
75
  0
LINE
  5
17D
100
AcDbEntity
  8
画層0
100
AcDbLine
  6
CONTINUOUS
 10
95.5
 20
85
 11
95.5
 21
75
  0
LWPOLYLINE
  5
17E
100
AcDbEntity
  8
画層0
100
AcDbPolyline
  6
CONTINUOUS
 90
     4
 70
     1
 10
94.5
  20
75
 10
95.5
  20
75
 10
95.5
  20
85
 10
94.5
  20
85
  0
SOLID
  5
17F
100
AcDbEntity
  8
画層0
100
AcDbTrace
 10
94.5
 20
75
 30
0.0
 11
95.5
 21
75
 31
0.0
 12
94.5
 22
85
 32
0.0
 13
95.5
 23
85
 33
0.0
  0
LWPOLYLINE
  5
180
100
AcDbEntity
  8
画層0
100
AcDbPolyline
  6
CONTINUOUS
 90
     4
 70
     1
 10
99.5
  20
70
 10
100.5
  20
70
 10
100.5
  20
90
 10
99.5
  20
90
  0
SOLID
  5
181
100
AcDbEntity
  8
画層0
100
AcDbTrace
 10
99.5
 20
70
 30
0.0
 11
100.5
 21
70
 31
0.0
 12
99.5
 22
90
 32
0.0
 13
100.5
 23
90
 33
0.0
  0
LINE
  5
182
100
AcDbEntity
  8
画層0
100
AcDbLine
  6
CONTINUOUS
 10
110
 20
72.5
 11
110
 21
70
  0
LINE
  5
183
100
AcDbEntity
  8
画層0
100
AcDbLine
  6
CONTINUOUS
 10
110
 20
87.5
 11
110
 21
90
  0
LINE
  5
184
100
AcDbEntity
  8
画層0
100
AcDbLine
  6
CONTINUOUS
 10
80
 20
120
 11
90
 21
120
  0
LINE
  5
185
100
AcDbEntity
  8
画層0
100
AcDbLine
  6
CONTINUOUS
 10
180
 20
100
 11
175
 21
102.5
  0
LINE
  5
186
100
AcDbEntity
  8
画層0
100
AcDbLine
  6
CONTINUOUS
 10
180
 20
100
 11
175
 21
97.5
  0
LINE
  5
187
100
AcDbEntity
  8
画層0
100
AcDbLine
  6
CONTINUOUS
 10
160
 20
97.5
 11
160
 21
102.5
  0
LINE
  5
188
100
AcDbEntity
  8
画層0
100
AcDbLine
  6
CONTINUOUS
 10
175
 20
97.5
 11
160
 21
97.5
  0
LINE
  5
189
100
AcDbEntity
  8
画層0
100
AcDbLine
  6
CONTINUOUS
 10
175
 20
102.5
 11
160
 21
102.5
  0
LINE
  5
18A
100
AcDbEntity
  8
画層0
100
AcDbLine
  6
CONTINUOUS
 10
130
 20
100
 11
135
 21
102.5
  0
LINE
  5
18B
100
AcDbEntity
  8
画層0
100
AcDbLine
  6
CONTINUOUS
 10
130
 20
100
 11
135
 21
97.5
  0
LINE
  5
18C
100
AcDbEntity
  8
画層0
100
AcDbLine
  6
CONTINUOUS
 10
135
 20
102.5
 11
150
 21
102.5
  0
LINE
  5
18D
100
AcDbEntity
  8
画層0
100
AcDbLine
  6
CONTINUOUS
 10
135
 20
97.5
 11
150
 21
97.5
  0
LINE
  5
18E
100
AcDbEntity
  8
画層0
100
AcDbLine
  6
CONTINUOUS
 10
110
 20
90
 11
110
 21
110
  0
LINE
  5
18F
100
AcDbEntity
  8
画層0
100
AcDbLine
  6
CONTINUOUS
 10
230
 20
70
 11
250
 21
70
  0
LINE
  5
190
100
AcDbEntity
  8
画層0
100
AcDbLine
  6
CONTINUOUS
 10
235
 20
65
 11
245
 21
65
  0
LINE
  5
191
100
AcDbEntity
  8
画層0
100
AcDbLine
  6
CONTINUOUS
 10
240
 20
70
 11
240
 21
80
  0
LINE
  5
192
100
AcDbEntity
  8
画層0
100
AcDbLine
  6
CONTINUOUS
 10
232.5
 20
70
 11
232.5
 21
80
  0
LINE
  5
193
100
AcDbEntity
  8
画層0
100
AcDbLine
  6
CONTINUOUS
 10
247.5
 20
80
 11
247.5
 21
70
  0
LINE
  5
194
100
AcDbEntity
  8
画層0
100
AcDbLine
  6
CONTINUOUS
 10
240
 20
65
 11
240
 21
60
  0
LINE
  5
195
100
AcDbEntity
  8
画層0
100
AcDbLine
  6
CONTINUOUS
 10
240
 20
80
 11
241.25
 21
75
  0
LINE
  5
196
100
AcDbEntity
  8
画層0
100
AcDbLine
  6
CONTINUOUS
 10
240
 20
80
 11
238.75
 21
75
  0
LINE
  5
197
100
AcDbEntity
  8
画層0
100
AcDbLine
  6
CONTINUOUS
 10
247.5
 20
80
 11
250
 21
80
  0
LINE
  5
198
100
AcDbEntity
  8
画層0
100
AcDbLine
  6
CONTINUOUS
 10
230
 20
69.5
 11
250
 21
69.5
  0
LINE
  5
199
100
AcDbEntity
  8
画層0
100
AcDbLine
  6
CONTINUOUS
 10
230
 20
70.5
 11
250
 21
70.5
  0
LINE
  5
19A
100
AcDbEntity
  8
画層0
100
AcDbLine
  6
CONTINUOUS
 10
235
 20
64.5
 11
245
 21
64.5
  0
LINE
  5
19B
100
AcDbEntity
  8
画層0
100
AcDbLine
  6
CONTINUOUS
 10
235
 20
65.5
 11
245
 21
65.5
  0
LWPOLYLINE
  5
19C
100
AcDbEntity
  8
画層0
100
AcDbPolyline
  6
CONTINUOUS
 90
     4
 70
     1
 10
250
  20
69.5
 10
250
  20
70.5
 10
230
  20
70.5
 10
230
  20
69.5
  0
SOLID
  5
19D
100
AcDbEntity
  8
画層0
100
AcDbTrace
 10
250
 20
69.5
 30
0.0
 11
250
 21
70.5
 31
0.0
 12
230
 22
69.5
 32
0.0
 13
230
 23
70.5
 33
0.0
  0
LWPOLYLINE
  5
19E
100
AcDbEntity
  8
画層0
100
AcDbPolyline
  6
CONTINUOUS
 90
     4
 70
     1
 10
245
  20
64.5
 10
245
  20
65.5
 10
235
  20
65.5
 10
235
  20
64.5
  0
SOLID
  5
19F
100
AcDbEntity
  8
画層0
100
AcDbTrace
 10
245
 20
64.5
 30
0.0
 11
245
 21
65.5
 31
0.0
 12
235
 22
64.5
 32
0.0
 13
235
 23
65.5
 33
0.0
  0
LWPOLYLINE
  5
1A0
100
AcDbEntity
  8
画層0
100
AcDbPolyline
  6
CONTINUOUS
 90
     3
 70
     1
 10
240
  20
80
 10
238.75
  20
75
 10
241.25
  20
75
  0
SOLID
  5
1A1
100
AcDbEntity
  8
画層0
100
AcDbTrace
 10
240
 20
80
 30
0.0
 11
238.75
 21
75
 31
0.0
 12
241.25
 22
75
 32
0.0
 13
241.25
 23
75
 33
0.0
  0
CIRCLE
  5
1A2
100
AcDbEntity
  8
画層0
100
AcDbCircle
  6
CONTINUOUS
 10
240
 20
90
 40
2
  0
LINE
  5
1A3
100
AcDbEntity
  8
画層0
100
AcDbLine
  6
CONTINUOUS
 10
250
 20
90
 11
230
 21
90
  0
LINE
  5
1A4
100
AcDbEntity
  8
画層0
100
AcDbLine
  6
CONTINUOUS
 10
90
 20
80
 11
80
 21
80
  0
CIRCLE
  5
1A5
100
AcDbEntity
  8
画層0
100
AcDbCircle
  6
CONTINUOUS
 10
220
 20
100
 40
1
  0
SOLID
  5
1A6
100
AcDbEntity
  8
画層0
100
AcDbTrace
 10
220.992114701314
 20
99.8746667664357
 30
0.0
 11
221
 21
100
 31
0.0
 12
220.992114701314
 22
100.125333233564
 32
0.0
 13
220.992114701314
 23
100.125333233564
 33
0.0
  0
SOLID
  5
1A7
100
AcDbEntity
  8
画層0
100
AcDbTrace
 10
220.992114701314
 20
99.8746667664357
 30
0.0
 11
220.992114701314
 21
100.125333233564
 31
0.0
 12
220.968583161129
 22
100.248689887165
 32
0.0
 13
220.968583161129
 23
100.248689887165
 33
0.0
  0
SOLID
  5
1A8
100
AcDbEntity
  8
画層0
100
AcDbTrace
 10
220.992114701314
 20
99.8746667664357
 30
0.0
 11
220.968583161129
 21
100.248689887165
 31
0.0
 12
220.929776485888
 22
100.368124552685
 32
0.0
 13
220.929776485888
 23
100.368124552685
 33
0.0
  0
SOLID
  5
1A9
100
AcDbEntity
  8
画層0
100
AcDbTrace
 10
220.992114701314
 20
99.8746667664357
 30
0.0
 11
220.929776485888
 21
100.368124552685
 31
0.0
 12
220.876306680044
 22
100.481753674102
 32
0.0
 13
220.876306680044
 23
100.481753674102
 33
0.0
  0
SOLID
  5
1AA
100
AcDbEntity
  8
画層0
100
AcDbTrace
 10
220.992114701314
 20
99.8746667664357
 30
0.0
 11
220.876306680044
 21
100.481753674102
 31
0.0
 12
220.809016994375
 22
100.587785252292
 32
0.0
 13
220.809016994375
 23
100.587785252292
 33
0.0
  0
SOLID
  5
1AB
100
AcDbEntity
  8
画層0
100
AcDbTrace
 10
220.992114701314
 20
99.8746667664357
 30
0.0
 11
220.809016994375
 21
100.587785252292
 31
0.0
 12
220.728968627421
 22
100.684547105929
 32
0.0
 13
220.728968627421
 23
100.684547105929
 33
0.0
  0
SOLID
  5
1AC
100
AcDbEntity
  8
画層0
100
AcDbTrace
 10
220.992114701314
 20
99.8746667664357
 30
0.0
 11
220.728968627421
 21
100.684547105929
 31
0.0
 12
220.637423989749
 22
100.770513242776
 32
0.0
 13
220.637423989749
 23
100.770513242776
 33
0.0
  0
SOLID
  5
1AD
100
AcDbEntity
  8
画層0
100
AcDbTrace
 10
220.992114701314
 20
99.8746667664357
 30
0.0
 11
220.637423989749
 21
100.770513242776
 31
0.0
 12
220.535826794979
 22
100.844327925502
 32
0.0
 13
220.535826794979
 23
100.844327925502
 33
0.0
  0
SOLID
  5
1AE
100
AcDbEntity
  8
画層0
100
AcDbTrace
 10
220.992114701314
 20
99.8746667664357
 30
0.0
 11
220.535826794979
 21
100.844327925502
 31
0.0
 12
220.425779291565
 22
100.904827052466
 32
0.0
 13
220.425779291565
 23
100.904827052466
 33
0.0
  0
SOLID
  5
1AF
100
AcDbEntity
  8
画層0
100
AcDbTrace
 10
220.992114701314
 20
99.8746667664357
 30
0.0
 11
220.425779291565
 21
100.904827052466
 31
0.0
 12
220.309016994375
 22
100.951056516295
 32
0.0
 13
220.309016994375
 23
100.951056516295
 33
0.0
  0
SOLID
  5
1B0
100
AcDbEntity
  8
画層0
100
AcDbTrace
 10
220.992114701314
 20
99.8746667664357
 30
0.0
 11
220.309016994375
 21
100.951056516295
 31
0.0
 12
220.187381314586
 22
100.982287250729
 32
0.0
 13
220.187381314586
 23
100.982287250729
 33
0.0
  0
SOLID
  5
1B1
100
AcDbEntity
  8
画層0
100
AcDbTrace
 10
220.992114701314
 20
99.8746667664357
 30
0.0
 11
220.187381314586
 21
100.982287250729
 31
0.0
 12
220.062790519529
 22
100.998026728428
 32
0.0
 13
220.062790519529
 23
100.998026728428
 33
0.0
  0
SOLID
  5
1B2
100
AcDbEntity
  8
画層0
100
AcDbTrace
 10
220.992114701314
 20
99.8746667664357
 30
0.0
 11
220.062790519529
 21
100.998026728428
 31
0.0
 12
219.937209480471
 22
100.998026728428
 32
0.0
 13
219.937209480471
 23
100.998026728428
 33
0.0
  0
SOLID
  5
1B3
100
AcDbEntity
  8
画層0
100
AcDbTrace
 10
220.992114701314
 20
99.8746667664357
 30
0.0
 11
219.937209480471
 21
100.998026728428
 31
0.0
 12
219.812618685414
 22
100.982287250729
 32
0.0
 13
219.812618685414
 23
100.982287250729
 33
0.0
  0
SOLID
  5
1B4
100
AcDbEntity
  8
画層0
100
AcDbTrace
 10
220.992114701314
 20
99.8746667664357
 30
0.0
 11
219.812618685414
 21
100.982287250729
 31
0.0
 12
219.690983005625
 22
100.951056516295
 32
0.0
 13
219.690983005625
 23
100.951056516295
 33
0.0
  0
SOLID
  5
1B5
100
AcDbEntity
  8
画層0
100
AcDbTrace
 10
220.992114701314
 20
99.8746667664357
 30
0.0
 11
219.690983005625
 21
100.951056516295
 31
0.0
 12
219.574220708435
 22
100.904827052466
 32
0.0
 13
219.574220708435
 23
100.904827052466
 33
0.0
  0
SOLID
  5
1B6
100
AcDbEntity
  8
画層0
100
AcDbTrace
 10
220.992114701314
 20
99.8746667664357
 30
0.0
 11
219.574220708435
 21
100.904827052466
 31
0.0
 12
219.464173205021
 22
100.844327925502
 32
0.0
 13
219.464173205021
 23
100.844327925502
 33
0.0
  0
SOLID
  5
1B7
100
AcDbEntity
  8
画層0
100
AcDbTrace
 10
220.992114701314
 20
99.8746667664357
 30
0.0
 11
219.464173205021
 21
100.844327925502
 31
0.0
 12
219.362576010251
 22
100.770513242776
 32
0.0
 13
219.362576010251
 23
100.770513242776
 33
0.0
  0
SOLID
  5
1B8
100
AcDbEntity
  8
画層0
100
AcDbTrace
 10
220.992114701314
 20
99.8746667664357
 30
0.0
 11
219.362576010251
 21
100.770513242776
 31
0.0
 12
219.271031372579
 22
100.684547105929
 32
0.0
 13
219.271031372579
 23
100.684547105929
 33
0.0
  0
SOLID
  5
1B9
100
AcDbEntity
  8
画層0
100
AcDbTrace
 10
220.992114701314
 20
99.8746667664357
 30
0.0
 11
219.271031372579
 21
100.684547105929
 31
0.0
 12
219.190983005625
 22
100.587785252292
 32
0.0
 13
219.190983005625
 23
100.587785252292
 33
0.0
  0
SOLID
  5
1BA
100
AcDbEntity
  8
画層0
100
AcDbTrace
 10
220.992114701314
 20
99.8746667664357
 30
0.0
 11
219.190983005625
 21
100.587785252292
 31
0.0
 12
219.123693319956
 22
100.481753674102
 32
0.0
 13
219.123693319956
 23
100.481753674102
 33
0.0
  0
SOLID
  5
1BB
100
AcDbEntity
  8
画層0
100
AcDbTrace
 10
220.992114701314
 20
99.8746667664357
 30
0.0
 11
219.123693319956
 21
100.481753674102
 31
0.0
 12
219.070223514112
 22
100.368124552685
 32
0.0
 13
219.070223514112
 23
100.368124552685
 33
0.0
  0
SOLID
  5
1BC
100
AcDbEntity
  8
画層0
100
AcDbTrace
 10
220.992114701314
 20
99.8746667664357
 30
0.0
 11
219.070223514112
 21
100.368124552685
 31
0.0
 12
219.031416838871
 22
100.248689887165
 32
0.0
 13
219.031416838871
 23
100.248689887165
 33
0.0
  0
SOLID
  5
1BD
100
AcDbEntity
  8
画層0
100
AcDbTrace
 10
220.992114701314
 20
99.8746667664357
 30
0.0
 11
219.031416838871
 21
100.248689887165
 31
0.0
 12
219.007885298686
 22
100.125333233564
 32
0.0
 13
219.007885298686
 23
100.125333233564
 33
0.0
  0
SOLID
  5
1BE
100
AcDbEntity
  8
画層0
100
AcDbTrace
 10
220.992114701314
 20
99.8746667664357
 30
0.0
 11
219.007885298686
 21
100.125333233564
 31
0.0
 12
219
 22
100
 32
0.0
 13
219
 23
100
 33
0.0
  0
SOLID
  5
1BF
100
AcDbEntity
  8
画層0
100
AcDbTrace
 10
220.992114701314
 20
99.8746667664357
 30
0.0
 11
219
 21
100
 31
0.0
 12
219.007885298686
 22
99.8746667664357
 32
0.0
 13
219.007885298686
 23
99.8746667664357
 33
0.0
  0
SOLID
  5
1C0
100
AcDbEntity
  8
画層0
100
AcDbTrace
 10
220.992114701314
 20
99.8746667664357
 30
0.0
 11
219.007885298686
 21
99.8746667664357
 31
0.0
 12
219.031416838871
 22
99.7513101128351
 32
0.0
 13
219.031416838871
 23
99.7513101128351
 33
0.0
  0
SOLID
  5
1C1
100
AcDbEntity
  8
画層0
100
AcDbTrace
 10
220.992114701314
 20
99.8746667664357
 30
0.0
 11
219.031416838871
 21
99.7513101128351
 31
0.0
 12
219.070223514112
 22
99.6318754473153
 32
0.0
 13
219.070223514112
 23
99.6318754473153
 33
0.0
  0
SOLID
  5
1C2
100
AcDbEntity
  8
画層0
100
AcDbTrace
 10
220.992114701314
 20
99.8746667664357
 30
0.0
 11
219.070223514112
 21
99.6318754473153
 31
0.0
 12
219.123693319956
 22
99.5182463258983
 32
0.0
 13
219.123693319956
 23
99.5182463258983
 33
0.0
  0
SOLID
  5
1C3
100
AcDbEntity
  8
画層0
100
AcDbTrace
 10
220.992114701314
 20
99.8746667664357
 30
0.0
 11
219.123693319956
 21
99.5182463258983
 31
0.0
 12
219.190983005625
 22
99.4122147477075
 32
0.0
 13
219.190983005625
 23
99.4122147477075
 33
0.0
  0
SOLID
  5
1C4
100
AcDbEntity
  8
画層0
100
AcDbTrace
 10
220.992114701314
 20
99.8746667664357
 30
0.0
 11
219.190983005625
 21
99.4122147477075
 31
0.0
 12
219.271031372579
 22
99.3154528940713
 32
0.0
 13
219.271031372579
 23
99.3154528940713
 33
0.0
  0
SOLID
  5
1C5
100
AcDbEntity
  8
画層0
100
AcDbTrace
 10
220.992114701314
 20
99.8746667664357
 30
0.0
 11
219.271031372579
 21
99.3154528940713
 31
0.0
 12
219.362576010251
 22
99.2294867572242
 32
0.0
 13
219.362576010251
 23
99.2294867572242
 33
0.0
  0
SOLID
  5
1C6
100
AcDbEntity
  8
画層0
100
AcDbTrace
 10
220.992114701314
 20
99.8746667664357
 30
0.0
 11
219.362576010251
 21
99.2294867572242
 31
0.0
 12
219.464173205021
 22
99.155672074498
 32
0.0
 13
219.464173205021
 23
99.155672074498
 33
0.0
  0
SOLID
  5
1C7
100
AcDbEntity
  8
画層0
100
AcDbTrace
 10
220.992114701314
 20
99.8746667664357
 30
0.0
 11
219.464173205021
 21
99.155672074498
 31
0.0
 12
219.574220708435
 22
99.095172947534
 32
0.0
 13
219.574220708435
 23
99.095172947534
 33
0.0
  0
SOLID
  5
1C8
100
AcDbEntity
  8
画層0
100
AcDbTrace
 10
220.992114701314
 20
99.8746667664357
 30
0.0
 11
219.574220708435
 21
99.095172947534
 31
0.0
 12
219.690983005625
 22
99.0489434837048
 32
0.0
 13
219.690983005625
 23
99.0489434837048
 33
0.0
  0
SOLID
  5
1C9
100
AcDbEntity
  8
画層0
100
AcDbTrace
 10
220.992114701314
 20
99.8746667664357
 30
0.0
 11
219.690983005625
 21
99.0489434837048
 31
0.0
 12
219.812618685414
 22
99.0177127492713
 32
0.0
 13
219.812618685414
 23
99.0177127492713
 33
0.0
  0
SOLID
  5
1CA
100
AcDbEntity
  8
画層0
100
AcDbTrace
 10
220.992114701314
 20
99.8746667664357
 30
0.0
 11
219.812618685414
 21
99.0177127492713
 31
0.0
 12
219.937209480471
 22
99.0019732715717
 32
0.0
 13
219.937209480471
 23
99.0019732715717
 33
0.0
  0
SOLID
  5
1CB
100
AcDbEntity
  8
画層0
100
AcDbTrace
 10
220.992114701314
 20
99.8746667664357
 30
0.0
 11
219.937209480471
 21
99.0019732715717
 31
0.0
 12
220.062790519529
 22
99.0019732715717
 32
0.0
 13
220.062790519529
 23
99.0019732715717
 33
0.0
  0
SOLID
  5
1CC
100
AcDbEntity
  8
画層0
100
AcDbTrace
 10
220.992114701314
 20
99.8746667664357
 30
0.0
 11
220.062790519529
 21
99.0019732715717
 31
0.0
 12
220.187381314586
 22
99.0177127492713
 32
0.0
 13
220.187381314586
 23
99.0177127492713
 33
0.0
  0
SOLID
  5
1CD
100
AcDbEntity
  8
画層0
100
AcDbTrace
 10
220.992114701314
 20
99.8746667664357
 30
0.0
 11
220.187381314586
 21
99.0177127492713
 31
0.0
 12
220.309016994375
 22
99.0489434837048
 32
0.0
 13
220.309016994375
 23
99.0489434837048
 33
0.0
  0
SOLID
  5
1CE
100
AcDbEntity
  8
画層0
100
AcDbTrace
 10
220.992114701314
 20
99.8746667664357
 30
0.0
 11
220.309016994375
 21
99.0489434837048
 31
0.0
 12
220.425779291565
 22
99.095172947534
 32
0.0
 13
220.425779291565
 23
99.095172947534
 33
0.0
  0
SOLID
  5
1CF
100
AcDbEntity
  8
画層0
100
AcDbTrace
 10
220.992114701314
 20
99.8746667664357
 30
0.0
 11
220.425779291565
 21
99.095172947534
 31
0.0
 12
220.535826794979
 22
99.155672074498
 32
0.0
 13
220.535826794979
 23
99.155672074498
 33
0.0
  0
SOLID
  5
1D0
100
AcDbEntity
  8
画層0
100
AcDbTrace
 10
220.992114701314
 20
99.8746667664357
 30
0.0
 11
220.535826794979
 21
99.155672074498
 31
0.0
 12
220.637423989749
 22
99.2294867572242
 32
0.0
 13
220.637423989749
 23
99.2294867572242
 33
0.0
  0
SOLID
  5
1D1
100
AcDbEntity
  8
画層0
100
AcDbTrace
 10
220.992114701314
 20
99.8746667664357
 30
0.0
 11
220.637423989749
 21
99.2294867572242
 31
0.0
 12
220.728968627421
 22
99.3154528940713
 32
0.0
 13
220.728968627421
 23
99.3154528940713
 33
0.0
  0
SOLID
  5
1D2
100
AcDbEntity
  8
画層0
100
AcDbTrace
 10
220.992114701314
 20
99.8746667664357
 30
0.0
 11
220.728968627421
 21
99.3154528940713
 31
0.0
 12
220.809016994375
 22
99.4122147477075
 32
0.0
 13
220.809016994375
 23
99.4122147477075
 33
0.0
  0
SOLID
  5
1D3
100
AcDbEntity
  8
画層0
100
AcDbTrace
 10
220.992114701314
 20
99.8746667664357
 30
0.0
 11
220.809016994375
 21
99.4122147477075
 31
0.0
 12
220.876306680044
 22
99.5182463258983
 32
0.0
 13
220.876306680044
 23
99.5182463258983
 33
0.0
  0
SOLID
  5
1D4
100
AcDbEntity
  8
画層0
100
AcDbTrace
 10
220.992114701314
 20
99.8746667664357
 30
0.0
 11
220.876306680044
 21
99.5182463258983
 31
0.0
 12
220.929776485888
 22
99.6318754473153
 32
0.0
 13
220.929776485888
 23
99.6318754473153
 33
0.0
  0
SOLID
  5
1D5
100
AcDbEntity
  8
画層0
100
AcDbTrace
 10
220.992114701314
 20
99.8746667664357
 30
0.0
 11
220.929776485888
 21
99.6318754473153
 31
0.0
 12
220.968583161129
 22
99.7513101128352
 32
0.0
 13
220.968583161129
 23
99.7513101128352
 33
0.0
  0
CIRCLE
  5
1D6
100
AcDbEntity
  8
画層0
100
AcDbCircle
  6
CONTINUOUS
 10
110
 20
100
 40
1
  0
SOLID
  5
1D7
100
AcDbEntity
  8
画層0
100
AcDbTrace
 10
110.992114701314
 20
99.8746667664357
 30
0.0
 11
111
 21
100
 31
0.0
 12
110.992114701314
 22
100.125333233564
 32
0.0
 13
110.992114701314
 23
100.125333233564
 33
0.0
  0
SOLID
  5
1D8
100
AcDbEntity
  8
画層0
100
AcDbTrace
 10
110.992114701314
 20
99.8746667664357
 30
0.0
 11
110.992114701314
 21
100.125333233564
 31
0.0
 12
110.968583161129
 22
100.248689887165
 32
0.0
 13
110.968583161129
 23
100.248689887165
 33
0.0
  0
SOLID
  5
1D9
100
AcDbEntity
  8
画層0
100
AcDbTrace
 10
110.992114701314
 20
99.8746667664357
 30
0.0
 11
110.968583161129
 21
100.248689887165
 31
0.0
 12
110.929776485888
 22
100.368124552685
 32
0.0
 13
110.929776485888
 23
100.368124552685
 33
0.0
  0
SOLID
  5
1DA
100
AcDbEntity
  8
画層0
100
AcDbTrace
 10
110.992114701314
 20
99.8746667664357
 30
0.0
 11
110.929776485888
 21
100.368124552685
 31
0.0
 12
110.876306680044
 22
100.481753674102
 32
0.0
 13
110.876306680044
 23
100.481753674102
 33
0.0
  0
SOLID
  5
1DB
100
AcDbEntity
  8
画層0
100
AcDbTrace
 10
110.992114701314
 20
99.8746667664357
 30
0.0
 11
110.876306680044
 21
100.481753674102
 31
0.0
 12
110.809016994375
 22
100.587785252292
 32
0.0
 13
110.809016994375
 23
100.587785252292
 33
0.0
  0
SOLID
  5
1DC
100
AcDbEntity
  8
画層0
100
AcDbTrace
 10
110.992114701314
 20
99.8746667664357
 30
0.0
 11
110.809016994375
 21
100.587785252292
 31
0.0
 12
110.728968627421
 22
100.684547105929
 32
0.0
 13
110.728968627421
 23
100.684547105929
 33
0.0
  0
SOLID
  5
1DD
100
AcDbEntity
  8
画層0
100
AcDbTrace
 10
110.992114701314
 20
99.8746667664357
 30
0.0
 11
110.728968627421
 21
100.684547105929
 31
0.0
 12
110.637423989749
 22
100.770513242776
 32
0.0
 13
110.637423989749
 23
100.770513242776
 33
0.0
  0
SOLID
  5
1DE
100
AcDbEntity
  8
画層0
100
AcDbTrace
 10
110.992114701314
 20
99.8746667664357
 30
0.0
 11
110.637423989749
 21
100.770513242776
 31
0.0
 12
110.535826794979
 22
100.844327925502
 32
0.0
 13
110.535826794979
 23
100.844327925502
 33
0.0
  0
SOLID
  5
1DF
100
AcDbEntity
  8
画層0
100
AcDbTrace
 10
110.992114701314
 20
99.8746667664357
 30
0.0
 11
110.535826794979
 21
100.844327925502
 31
0.0
 12
110.425779291565
 22
100.904827052466
 32
0.0
 13
110.425779291565
 23
100.904827052466
 33
0.0
  0
SOLID
  5
1E0
100
AcDbEntity
  8
画層0
100
AcDbTrace
 10
110.992114701314
 20
99.8746667664357
 30
0.0
 11
110.425779291565
 21
100.904827052466
 31
0.0
 12
110.309016994375
 22
100.951056516295
 32
0.0
 13
110.309016994375
 23
100.951056516295
 33
0.0
  0
SOLID
  5
1E1
100
AcDbEntity
  8
画層0
100
AcDbTrace
 10
110.992114701314
 20
99.8746667664357
 30
0.0
 11
110.309016994375
 21
100.951056516295
 31
0.0
 12
110.187381314586
 22
100.982287250729
 32
0.0
 13
110.187381314586
 23
100.982287250729
 33
0.0
  0
SOLID
  5
1E2
100
AcDbEntity
  8
画層0
100
AcDbTrace
 10
110.992114701314
 20
99.8746667664357
 30
0.0
 11
110.187381314586
 21
100.982287250729
 31
0.0
 12
110.062790519529
 22
100.998026728428
 32
0.0
 13
110.062790519529
 23
100.998026728428
 33
0.0
  0
SOLID
  5
1E3
100
AcDbEntity
  8
画層0
100
AcDbTrace
 10
110.992114701314
 20
99.8746667664357
 30
0.0
 11
110.062790519529
 21
100.998026728428
 31
0.0
 12
109.937209480471
 22
100.998026728428
 32
0.0
 13
109.937209480471
 23
100.998026728428
 33
0.0
  0
SOLID
  5
1E4
100
AcDbEntity
  8
画層0
100
AcDbTrace
 10
110.992114701314
 20
99.8746667664357
 30
0.0
 11
109.937209480471
 21
100.998026728428
 31
0.0
 12
109.812618685414
 22
100.982287250729
 32
0.0
 13
109.812618685414
 23
100.982287250729
 33
0.0
  0
SOLID
  5
1E5
100
AcDbEntity
  8
画層0
100
AcDbTrace
 10
110.992114701314
 20
99.8746667664357
 30
0.0
 11
109.812618685414
 21
100.982287250729
 31
0.0
 12
109.690983005625
 22
100.951056516295
 32
0.0
 13
109.690983005625
 23
100.951056516295
 33
0.0
  0
SOLID
  5
1E6
100
AcDbEntity
  8
画層0
100
AcDbTrace
 10
110.992114701314
 20
99.8746667664357
 30
0.0
 11
109.690983005625
 21
100.951056516295
 31
0.0
 12
109.574220708435
 22
100.904827052466
 32
0.0
 13
109.574220708435
 23
100.904827052466
 33
0.0
  0
SOLID
  5
1E7
100
AcDbEntity
  8
画層0
100
AcDbTrace
 10
110.992114701314
 20
99.8746667664357
 30
0.0
 11
109.574220708435
 21
100.904827052466
 31
0.0
 12
109.464173205021
 22
100.844327925502
 32
0.0
 13
109.464173205021
 23
100.844327925502
 33
0.0
  0
SOLID
  5
1E8
100
AcDbEntity
  8
画層0
100
AcDbTrace
 10
110.992114701314
 20
99.8746667664357
 30
0.0
 11
109.464173205021
 21
100.844327925502
 31
0.0
 12
109.362576010251
 22
100.770513242776
 32
0.0
 13
109.362576010251
 23
100.770513242776
 33
0.0
  0
SOLID
  5
1E9
100
AcDbEntity
  8
画層0
100
AcDbTrace
 10
110.992114701314
 20
99.8746667664357
 30
0.0
 11
109.362576010251
 21
100.770513242776
 31
0.0
 12
109.271031372579
 22
100.684547105929
 32
0.0
 13
109.271031372579
 23
100.684547105929
 33
0.0
  0
SOLID
  5
1EA
100
AcDbEntity
  8
画層0
100
AcDbTrace
 10
110.992114701314
 20
99.8746667664357
 30
0.0
 11
109.271031372579
 21
100.684547105929
 31
0.0
 12
109.190983005625
 22
100.587785252292
 32
0.0
 13
109.190983005625
 23
100.587785252292
 33
0.0
  0
SOLID
  5
1EB
100
AcDbEntity
  8
画層0
100
AcDbTrace
 10
110.992114701314
 20
99.8746667664357
 30
0.0
 11
109.190983005625
 21
100.587785252292
 31
0.0
 12
109.123693319956
 22
100.481753674102
 32
0.0
 13
109.123693319956
 23
100.481753674102
 33
0.0
  0
SOLID
  5
1EC
100
AcDbEntity
  8
画層0
100
AcDbTrace
 10
110.992114701314
 20
99.8746667664357
 30
0.0
 11
109.123693319956
 21
100.481753674102
 31
0.0
 12
109.070223514112
 22
100.368124552685
 32
0.0
 13
109.070223514112
 23
100.368124552685
 33
0.0
  0
SOLID
  5
1ED
100
AcDbEntity
  8
画層0
100
AcDbTrace
 10
110.992114701314
 20
99.8746667664357
 30
0.0
 11
109.070223514112
 21
100.368124552685
 31
0.0
 12
109.031416838871
 22
100.248689887165
 32
0.0
 13
109.031416838871
 23
100.248689887165
 33
0.0
  0
SOLID
  5
1EE
100
AcDbEntity
  8
画層0
100
AcDbTrace
 10
110.992114701314
 20
99.8746667664357
 30
0.0
 11
109.031416838871
 21
100.248689887165
 31
0.0
 12
109.007885298686
 22
100.125333233564
 32
0.0
 13
109.007885298686
 23
100.125333233564
 33
0.0
  0
SOLID
  5
1EF
100
AcDbEntity
  8
画層0
100
AcDbTrace
 10
110.992114701314
 20
99.8746667664357
 30
0.0
 11
109.007885298686
 21
100.125333233564
 31
0.0
 12
109
 22
100
 32
0.0
 13
109
 23
100
 33
0.0
  0
SOLID
  5
1F0
100
AcDbEntity
  8
画層0
100
AcDbTrace
 10
110.992114701314
 20
99.8746667664357
 30
0.0
 11
109
 21
100
 31
0.0
 12
109.007885298686
 22
99.8746667664357
 32
0.0
 13
109.007885298686
 23
99.8746667664357
 33
0.0
  0
SOLID
  5
1F1
100
AcDbEntity
  8
画層0
100
AcDbTrace
 10
110.992114701314
 20
99.8746667664357
 30
0.0
 11
109.007885298686
 21
99.8746667664357
 31
0.0
 12
109.031416838871
 22
99.7513101128351
 32
0.0
 13
109.031416838871
 23
99.7513101128351
 33
0.0
  0
SOLID
  5
1F2
100
AcDbEntity
  8
画層0
100
AcDbTrace
 10
110.992114701314
 20
99.8746667664357
 30
0.0
 11
109.031416838871
 21
99.7513101128351
 31
0.0
 12
109.070223514112
 22
99.6318754473153
 32
0.0
 13
109.070223514112
 23
99.6318754473153
 33
0.0
  0
SOLID
  5
1F3
100
AcDbEntity
  8
画層0
100
AcDbTrace
 10
110.992114701314
 20
99.8746667664357
 30
0.0
 11
109.070223514112
 21
99.6318754473153
 31
0.0
 12
109.123693319956
 22
99.5182463258983
 32
0.0
 13
109.123693319956
 23
99.5182463258983
 33
0.0
  0
SOLID
  5
1F4
100
AcDbEntity
  8
画層0
100
AcDbTrace
 10
110.992114701314
 20
99.8746667664357
 30
0.0
 11
109.123693319956
 21
99.5182463258983
 31
0.0
 12
109.190983005625
 22
99.4122147477075
 32
0.0
 13
109.190983005625
 23
99.4122147477075
 33
0.0
  0
SOLID
  5
1F5
100
AcDbEntity
  8
画層0
100
AcDbTrace
 10
110.992114701314
 20
99.8746667664357
 30
0.0
 11
109.190983005625
 21
99.4122147477075
 31
0.0
 12
109.271031372579
 22
99.3154528940713
 32
0.0
 13
109.271031372579
 23
99.3154528940713
 33
0.0
  0
SOLID
  5
1F6
100
AcDbEntity
  8
画層0
100
AcDbTrace
 10
110.992114701314
 20
99.8746667664357
 30
0.0
 11
109.271031372579
 21
99.3154528940713
 31
0.0
 12
109.362576010251
 22
99.2294867572242
 32
0.0
 13
109.362576010251
 23
99.2294867572242
 33
0.0
  0
SOLID
  5
1F7
100
AcDbEntity
  8
画層0
100
AcDbTrace
 10
110.992114701314
 20
99.8746667664357
 30
0.0
 11
109.362576010251
 21
99.2294867572242
 31
0.0
 12
109.464173205021
 22
99.155672074498
 32
0.0
 13
109.464173205021
 23
99.155672074498
 33
0.0
  0
SOLID
  5
1F8
100
AcDbEntity
  8
画層0
100
AcDbTrace
 10
110.992114701314
 20
99.8746667664357
 30
0.0
 11
109.464173205021
 21
99.155672074498
 31
0.0
 12
109.574220708435
 22
99.095172947534
 32
0.0
 13
109.574220708435
 23
99.095172947534
 33
0.0
  0
SOLID
  5
1F9
100
AcDbEntity
  8
画層0
100
AcDbTrace
 10
110.992114701314
 20
99.8746667664357
 30
0.0
 11
109.574220708435
 21
99.095172947534
 31
0.0
 12
109.690983005625
 22
99.0489434837048
 32
0.0
 13
109.690983005625
 23
99.0489434837048
 33
0.0
  0
SOLID
  5
1FA
100
AcDbEntity
  8
画層0
100
AcDbTrace
 10
110.992114701314
 20
99.8746667664357
 30
0.0
 11
109.690983005625
 21
99.0489434837048
 31
0.0
 12
109.812618685414
 22
99.0177127492713
 32
0.0
 13
109.812618685414
 23
99.0177127492713
 33
0.0
  0
SOLID
  5
1FB
100
AcDbEntity
  8
画層0
100
AcDbTrace
 10
110.992114701314
 20
99.8746667664357
 30
0.0
 11
109.812618685414
 21
99.0177127492713
 31
0.0
 12
109.937209480471
 22
99.0019732715717
 32
0.0
 13
109.937209480471
 23
99.0019732715717
 33
0.0
  0
SOLID
  5
1FC
100
AcDbEntity
  8
画層0
100
AcDbTrace
 10
110.992114701314
 20
99.8746667664357
 30
0.0
 11
109.937209480471
 21
99.0019732715717
 31
0.0
 12
110.062790519529
 22
99.0019732715717
 32
0.0
 13
110.062790519529
 23
99.0019732715717
 33
0.0
  0
SOLID
  5
1FD
100
AcDbEntity
  8
画層0
100
AcDbTrace
 10
110.992114701314
 20
99.8746667664357
 30
0.0
 11
110.062790519529
 21
99.0019732715717
 31
0.0
 12
110.187381314586
 22
99.0177127492713
 32
0.0
 13
110.187381314586
 23
99.0177127492713
 33
0.0
  0
SOLID
  5
1FE
100
AcDbEntity
  8
画層0
100
AcDbTrace
 10
110.992114701314
 20
99.8746667664357
 30
0.0
 11
110.187381314586
 21
99.0177127492713
 31
0.0
 12
110.309016994375
 22
99.0489434837048
 32
0.0
 13
110.309016994375
 23
99.0489434837048
 33
0.0
  0
SOLID
  5
1FF
100
AcDbEntity
  8
画層0
100
AcDbTrace
 10
110.992114701314
 20
99.8746667664357
 30
0.0
 11
110.309016994375
 21
99.0489434837048
 31
0.0
 12
110.425779291565
 22
99.095172947534
 32
0.0
 13
110.425779291565
 23
99.095172947534
 33
0.0
  0
SOLID
  5
200
100
AcDbEntity
  8
画層0
100
AcDbTrace
 10
110.992114701314
 20
99.8746667664357
 30
0.0
 11
110.425779291565
 21
99.095172947534
 31
0.0
 12
110.535826794979
 22
99.155672074498
 32
0.0
 13
110.535826794979
 23
99.155672074498
 33
0.0
  0
SOLID
  5
201
100
AcDbEntity
  8
画層0
100
AcDbTrace
 10
110.992114701314
 20
99.8746667664357
 30
0.0
 11
110.535826794979
 21
99.155672074498
 31
0.0
 12
110.637423989749
 22
99.2294867572242
 32
0.0
 13
110.637423989749
 23
99.2294867572242
 33
0.0
  0
SOLID
  5
202
100
AcDbEntity
  8
画層0
100
AcDbTrace
 10
110.992114701314
 20
99.8746667664357
 30
0.0
 11
110.637423989749
 21
99.2294867572242
 31
0.0
 12
110.728968627421
 22
99.3154528940713
 32
0.0
 13
110.728968627421
 23
99.3154528940713
 33
0.0
  0
SOLID
  5
203
100
AcDbEntity
  8
画層0
100
AcDbTrace
 10
110.992114701314
 20
99.8746667664357
 30
0.0
 11
110.728968627421
 21
99.3154528940713
 31
0.0
 12
110.809016994375
 22
99.4122147477075
 32
0.0
 13
110.809016994375
 23
99.4122147477075
 33
0.0
  0
SOLID
  5
204
100
AcDbEntity
  8
画層0
100
AcDbTrace
 10
110.992114701314
 20
99.8746667664357
 30
0.0
 11
110.809016994375
 21
99.4122147477075
 31
0.0
 12
110.876306680044
 22
99.5182463258983
 32
0.0
 13
110.876306680044
 23
99.5182463258983
 33
0.0
  0
SOLID
  5
205
100
AcDbEntity
  8
画層0
100
AcDbTrace
 10
110.992114701314
 20
99.8746667664357
 30
0.0
 11
110.876306680044
 21
99.5182463258983
 31
0.0
 12
110.929776485888
 22
99.6318754473153
 32
0.0
 13
110.929776485888
 23
99.6318754473153
 33
0.0
  0
SOLID
  5
206
100
AcDbEntity
  8
画層0
100
AcDbTrace
 10
110.992114701314
 20
99.8746667664357
 30
0.0
 11
110.929776485888
 21
99.6318754473153
 31
0.0
 12
110.968583161129
 22
99.7513101128352
 32
0.0
 13
110.968583161129
 23
99.7513101128352
 33
0.0
  0
CIRCLE
  5
207
100
AcDbEntity
  8
画層0
100
AcDbCircle
  6
CONTINUOUS
 10
260
 20
100
 40
1
  0
SOLID
  5
208
100
AcDbEntity
  8
画層0
100
AcDbTrace
 10
260.992114701314
 20
99.8746667664357
 30
0.0
 11
261
 21
100
 31
0.0
 12
260.992114701314
 22
100.125333233564
 32
0.0
 13
260.992114701314
 23
100.125333233564
 33
0.0
  0
SOLID
  5
209
100
AcDbEntity
  8
画層0
100
AcDbTrace
 10
260.992114701314
 20
99.8746667664357
 30
0.0
 11
260.992114701314
 21
100.125333233564
 31
0.0
 12
260.968583161129
 22
100.248689887165
 32
0.0
 13
260.968583161129
 23
100.248689887165
 33
0.0
  0
SOLID
  5
20A
100
AcDbEntity
  8
画層0
100
AcDbTrace
 10
260.992114701314
 20
99.8746667664357
 30
0.0
 11
260.968583161129
 21
100.248689887165
 31
0.0
 12
260.929776485888
 22
100.368124552685
 32
0.0
 13
260.929776485888
 23
100.368124552685
 33
0.0
  0
SOLID
  5
20B
100
AcDbEntity
  8
画層0
100
AcDbTrace
 10
260.992114701314
 20
99.8746667664357
 30
0.0
 11
260.929776485888
 21
100.368124552685
 31
0.0
 12
260.876306680044
 22
100.481753674102
 32
0.0
 13
260.876306680044
 23
100.481753674102
 33
0.0
  0
SOLID
  5
20C
100
AcDbEntity
  8
画層0
100
AcDbTrace
 10
260.992114701314
 20
99.8746667664357
 30
0.0
 11
260.876306680044
 21
100.481753674102
 31
0.0
 12
260.809016994375
 22
100.587785252292
 32
0.0
 13
260.809016994375
 23
100.587785252292
 33
0.0
  0
SOLID
  5
20D
100
AcDbEntity
  8
画層0
100
AcDbTrace
 10
260.992114701314
 20
99.8746667664357
 30
0.0
 11
260.809016994375
 21
100.587785252292
 31
0.0
 12
260.728968627421
 22
100.684547105929
 32
0.0
 13
260.728968627421
 23
100.684547105929
 33
0.0
  0
SOLID
  5
20E
100
AcDbEntity
  8
画層0
100
AcDbTrace
 10
260.992114701314
 20
99.8746667664357
 30
0.0
 11
260.728968627421
 21
100.684547105929
 31
0.0
 12
260.637423989749
 22
100.770513242776
 32
0.0
 13
260.637423989749
 23
100.770513242776
 33
0.0
  0
SOLID
  5
20F
100
AcDbEntity
  8
画層0
100
AcDbTrace
 10
260.992114701314
 20
99.8746667664357
 30
0.0
 11
260.637423989749
 21
100.770513242776
 31
0.0
 12
260.535826794979
 22
100.844327925502
 32
0.0
 13
260.535826794979
 23
100.844327925502
 33
0.0
  0
SOLID
  5
210
100
AcDbEntity
  8
画層0
100
AcDbTrace
 10
260.992114701314
 20
99.8746667664357
 30
0.0
 11
260.535826794979
 21
100.844327925502
 31
0.0
 12
260.425779291565
 22
100.904827052466
 32
0.0
 13
260.425779291565
 23
100.904827052466
 33
0.0
  0
SOLID
  5
211
100
AcDbEntity
  8
画層0
100
AcDbTrace
 10
260.992114701314
 20
99.8746667664357
 30
0.0
 11
260.425779291565
 21
100.904827052466
 31
0.0
 12
260.309016994375
 22
100.951056516295
 32
0.0
 13
260.309016994375
 23
100.951056516295
 33
0.0
  0
SOLID
  5
212
100
AcDbEntity
  8
画層0
100
AcDbTrace
 10
260.992114701314
 20
99.8746667664357
 30
0.0
 11
260.309016994375
 21
100.951056516295
 31
0.0
 12
260.187381314586
 22
100.982287250729
 32
0.0
 13
260.187381314586
 23
100.982287250729
 33
0.0
  0
SOLID
  5
213
100
AcDbEntity
  8
画層0
100
AcDbTrace
 10
260.992114701314
 20
99.8746667664357
 30
0.0
 11
260.187381314586
 21
100.982287250729
 31
0.0
 12
260.062790519529
 22
100.998026728428
 32
0.0
 13
260.062790519529
 23
100.998026728428
 33
0.0
  0
SOLID
  5
214
100
AcDbEntity
  8
画層0
100
AcDbTrace
 10
260.992114701314
 20
99.8746667664357
 30
0.0
 11
260.062790519529
 21
100.998026728428
 31
0.0
 12
259.937209480471
 22
100.998026728428
 32
0.0
 13
259.937209480471
 23
100.998026728428
 33
0.0
  0
SOLID
  5
215
100
AcDbEntity
  8
画層0
100
AcDbTrace
 10
260.992114701314
 20
99.8746667664357
 30
0.0
 11
259.937209480471
 21
100.998026728428
 31
0.0
 12
259.812618685414
 22
100.982287250729
 32
0.0
 13
259.812618685414
 23
100.982287250729
 33
0.0
  0
SOLID
  5
216
100
AcDbEntity
  8
画層0
100
AcDbTrace
 10
260.992114701314
 20
99.8746667664357
 30
0.0
 11
259.812618685414
 21
100.982287250729
 31
0.0
 12
259.690983005625
 22
100.951056516295
 32
0.0
 13
259.690983005625
 23
100.951056516295
 33
0.0
  0
SOLID
  5
217
100
AcDbEntity
  8
画層0
100
AcDbTrace
 10
260.992114701314
 20
99.8746667664357
 30
0.0
 11
259.690983005625
 21
100.951056516295
 31
0.0
 12
259.574220708435
 22
100.904827052466
 32
0.0
 13
259.574220708435
 23
100.904827052466
 33
0.0
  0
SOLID
  5
218
100
AcDbEntity
  8
画層0
100
AcDbTrace
 10
260.992114701314
 20
99.8746667664357
 30
0.0
 11
259.574220708435
 21
100.904827052466
 31
0.0
 12
259.464173205021
 22
100.844327925502
 32
0.0
 13
259.464173205021
 23
100.844327925502
 33
0.0
  0
SOLID
  5
219
100
AcDbEntity
  8
画層0
100
AcDbTrace
 10
260.992114701314
 20
99.8746667664357
 30
0.0
 11
259.464173205021
 21
100.844327925502
 31
0.0
 12
259.362576010251
 22
100.770513242776
 32
0.0
 13
259.362576010251
 23
100.770513242776
 33
0.0
  0
SOLID
  5
21A
100
AcDbEntity
  8
画層0
100
AcDbTrace
 10
260.992114701314
 20
99.8746667664357
 30
0.0
 11
259.362576010251
 21
100.770513242776
 31
0.0
 12
259.271031372579
 22
100.684547105929
 32
0.0
 13
259.271031372579
 23
100.684547105929
 33
0.0
  0
SOLID
  5
21B
100
AcDbEntity
  8
画層0
100
AcDbTrace
 10
260.992114701314
 20
99.8746667664357
 30
0.0
 11
259.271031372579
 21
100.684547105929
 31
0.0
 12
259.190983005625
 22
100.587785252292
 32
0.0
 13
259.190983005625
 23
100.587785252292
 33
0.0
  0
SOLID
  5
21C
100
AcDbEntity
  8
画層0
100
AcDbTrace
 10
260.992114701314
 20
99.8746667664357
 30
0.0
 11
259.190983005625
 21
100.587785252292
 31
0.0
 12
259.123693319956
 22
100.481753674102
 32
0.0
 13
259.123693319956
 23
100.481753674102
 33
0.0
  0
SOLID
  5
21D
100
AcDbEntity
  8
画層0
100
AcDbTrace
 10
260.992114701314
 20
99.8746667664357
 30
0.0
 11
259.123693319956
 21
100.481753674102
 31
0.0
 12
259.070223514112
 22
100.368124552685
 32
0.0
 13
259.070223514112
 23
100.368124552685
 33
0.0
  0
SOLID
  5
21E
100
AcDbEntity
  8
画層0
100
AcDbTrace
 10
260.992114701314
 20
99.8746667664357
 30
0.0
 11
259.070223514112
 21
100.368124552685
 31
0.0
 12
259.031416838871
 22
100.248689887165
 32
0.0
 13
259.031416838871
 23
100.248689887165
 33
0.0
  0
SOLID
  5
21F
100
AcDbEntity
  8
画層0
100
AcDbTrace
 10
260.992114701314
 20
99.8746667664357
 30
0.0
 11
259.031416838871
 21
100.248689887165
 31
0.0
 12
259.007885298686
 22
100.125333233564
 32
0.0
 13
259.007885298686
 23
100.125333233564
 33
0.0
  0
SOLID
  5
220
100
AcDbEntity
  8
画層0
100
AcDbTrace
 10
260.992114701314
 20
99.8746667664357
 30
0.0
 11
259.007885298686
 21
100.125333233564
 31
0.0
 12
259
 22
100
 32
0.0
 13
259
 23
100
 33
0.0
  0
SOLID
  5
221
100
AcDbEntity
  8
画層0
100
AcDbTrace
 10
260.992114701314
 20
99.8746667664357
 30
0.0
 11
259
 21
100
 31
0.0
 12
259.007885298686
 22
99.8746667664357
 32
0.0
 13
259.007885298686
 23
99.8746667664357
 33
0.0
  0
SOLID
  5
222
100
AcDbEntity
  8
画層0
100
AcDbTrace
 10
260.992114701314
 20
99.8746667664357
 30
0.0
 11
259.007885298686
 21
99.8746667664357
 31
0.0
 12
259.031416838871
 22
99.7513101128351
 32
0.0
 13
259.031416838871
 23
99.7513101128351
 33
0.0
  0
SOLID
  5
223
100
AcDbEntity
  8
画層0
100
AcDbTrace
 10
260.992114701314
 20
99.8746667664357
 30
0.0
 11
259.031416838871
 21
99.7513101128351
 31
0.0
 12
259.070223514112
 22
99.6318754473153
 32
0.0
 13
259.070223514112
 23
99.6318754473153
 33
0.0
  0
SOLID
  5
224
100
AcDbEntity
  8
画層0
100
AcDbTrace
 10
260.992114701314
 20
99.8746667664357
 30
0.0
 11
259.070223514112
 21
99.6318754473153
 31
0.0
 12
259.123693319956
 22
99.5182463258983
 32
0.0
 13
259.123693319956
 23
99.5182463258983
 33
0.0
  0
SOLID
  5
225
100
AcDbEntity
  8
画層0
100
AcDbTrace
 10
260.992114701314
 20
99.8746667664357
 30
0.0
 11
259.123693319956
 21
99.5182463258983
 31
0.0
 12
259.190983005625
 22
99.4122147477075
 32
0.0
 13
259.190983005625
 23
99.4122147477075
 33
0.0
  0
SOLID
  5
226
100
AcDbEntity
  8
画層0
100
AcDbTrace
 10
260.992114701314
 20
99.8746667664357
 30
0.0
 11
259.190983005625
 21
99.4122147477075
 31
0.0
 12
259.271031372579
 22
99.3154528940713
 32
0.0
 13
259.271031372579
 23
99.3154528940713
 33
0.0
  0
SOLID
  5
227
100
AcDbEntity
  8
画層0
100
AcDbTrace
 10
260.992114701314
 20
99.8746667664357
 30
0.0
 11
259.271031372579
 21
99.3154528940713
 31
0.0
 12
259.362576010251
 22
99.2294867572242
 32
0.0
 13
259.362576010251
 23
99.2294867572242
 33
0.0
  0
SOLID
  5
228
100
AcDbEntity
  8
画層0
100
AcDbTrace
 10
260.992114701314
 20
99.8746667664357
 30
0.0
 11
259.362576010251
 21
99.2294867572242
 31
0.0
 12
259.464173205021
 22
99.155672074498
 32
0.0
 13
259.464173205021
 23
99.155672074498
 33
0.0
  0
SOLID
  5
229
100
AcDbEntity
  8
画層0
100
AcDbTrace
 10
260.992114701314
 20
99.8746667664357
 30
0.0
 11
259.464173205021
 21
99.155672074498
 31
0.0
 12
259.574220708435
 22
99.095172947534
 32
0.0
 13
259.574220708435
 23
99.095172947534
 33
0.0
  0
SOLID
  5
22A
100
AcDbEntity
  8
画層0
100
AcDbTrace
 10
260.992114701314
 20
99.8746667664357
 30
0.0
 11
259.574220708435
 21
99.095172947534
 31
0.0
 12
259.690983005625
 22
99.0489434837048
 32
0.0
 13
259.690983005625
 23
99.0489434837048
 33
0.0
  0
SOLID
  5
22B
100
AcDbEntity
  8
画層0
100
AcDbTrace
 10
260.992114701314
 20
99.8746667664357
 30
0.0
 11
259.690983005625
 21
99.0489434837048
 31
0.0
 12
259.812618685414
 22
99.0177127492713
 32
0.0
 13
259.812618685414
 23
99.0177127492713
 33
0.0
  0
SOLID
  5
22C
100
AcDbEntity
  8
画層0
100
AcDbTrace
 10
260.992114701314
 20
99.8746667664357
 30
0.0
 11
259.812618685414
 21
99.0177127492713
 31
0.0
 12
259.937209480471
 22
99.0019732715717
 32
0.0
 13
259.937209480471
 23
99.0019732715717
 33
0.0
  0
SOLID
  5
22D
100
AcDbEntity
  8
画層0
100
AcDbTrace
 10
260.992114701314
 20
99.8746667664357
 30
0.0
 11
259.937209480471
 21
99.0019732715717
 31
0.0
 12
260.062790519529
 22
99.0019732715717
 32
0.0
 13
260.062790519529
 23
99.0019732715717
 33
0.0
  0
SOLID
  5
22E
100
AcDbEntity
  8
画層0
100
AcDbTrace
 10
260.992114701314
 20
99.8746667664357
 30
0.0
 11
260.062790519529
 21
99.0019732715717
 31
0.0
 12
260.187381314586
 22
99.0177127492713
 32
0.0
 13
260.187381314586
 23
99.0177127492713
 33
0.0
  0
SOLID
  5
22F
100
AcDbEntity
  8
画層0
100
AcDbTrace
 10
260.992114701314
 20
99.8746667664357
 30
0.0
 11
260.187381314586
 21
99.0177127492713
 31
0.0
 12
260.309016994375
 22
99.0489434837048
 32
0.0
 13
260.309016994375
 23
99.0489434837048
 33
0.0
  0
SOLID
  5
230
100
AcDbEntity
  8
画層0
100
AcDbTrace
 10
260.992114701314
 20
99.8746667664357
 30
0.0
 11
260.309016994375
 21
99.0489434837048
 31
0.0
 12
260.425779291565
 22
99.095172947534
 32
0.0
 13
260.425779291565
 23
99.095172947534
 33
0.0
  0
SOLID
  5
231
100
AcDbEntity
  8
画層0
100
AcDbTrace
 10
260.992114701314
 20
99.8746667664357
 30
0.0
 11
260.425779291565
 21
99.095172947534
 31
0.0
 12
260.535826794979
 22
99.155672074498
 32
0.0
 13
260.535826794979
 23
99.155672074498
 33
0.0
  0
SOLID
  5
232
100
AcDbEntity
  8
画層0
100
AcDbTrace
 10
260.992114701314
 20
99.8746667664357
 30
0.0
 11
260.535826794979
 21
99.155672074498
 31
0.0
 12
260.637423989749
 22
99.2294867572242
 32
0.0
 13
260.637423989749
 23
99.2294867572242
 33
0.0
  0
SOLID
  5
233
100
AcDbEntity
  8
画層0
100
AcDbTrace
 10
260.992114701314
 20
99.8746667664357
 30
0.0
 11
260.637423989749
 21
99.2294867572242
 31
0.0
 12
260.728968627421
 22
99.3154528940713
 32
0.0
 13
260.728968627421
 23
99.3154528940713
 33
0.0
  0
SOLID
  5
234
100
AcDbEntity
  8
画層0
100
AcDbTrace
 10
260.992114701314
 20
99.8746667664357
 30
0.0
 11
260.728968627421
 21
99.3154528940713
 31
0.0
 12
260.809016994375
 22
99.4122147477075
 32
0.0
 13
260.809016994375
 23
99.4122147477075
 33
0.0
  0
SOLID
  5
235
100
AcDbEntity
  8
画層0
100
AcDbTrace
 10
260.992114701314
 20
99.8746667664357
 30
0.0
 11
260.809016994375
 21
99.4122147477075
 31
0.0
 12
260.876306680044
 22
99.5182463258983
 32
0.0
 13
260.876306680044
 23
99.5182463258983
 33
0.0
  0
SOLID
  5
236
100
AcDbEntity
  8
画層0
100
AcDbTrace
 10
260.992114701314
 20
99.8746667664357
 30
0.0
 11
260.876306680044
 21
99.5182463258983
 31
0.0
 12
260.929776485888
 22
99.6318754473153
 32
0.0
 13
260.929776485888
 23
99.6318754473153
 33
0.0
  0
SOLID
  5
237
100
AcDbEntity
  8
画層0
100
AcDbTrace
 10
260.992114701314
 20
99.8746667664357
 30
0.0
 11
260.929776485888
 21
99.6318754473153
 31
0.0
 12
260.968583161129
 22
99.7513101128352
 32
0.0
 13
260.968583161129
 23
99.7513101128352
 33
0.0
  0
CIRCLE
  5
238
100
AcDbEntity
  8
画層0
100
AcDbCircle
  6
CONTINUOUS
 10
190
 20
150
 40
1
  0
SOLID
  5
239
100
AcDbEntity
  8
画層0
100
AcDbTrace
 10
190.992114701314
 20
149.874666766436
 30
0.0
 11
191
 21
150
 31
0.0
 12
190.992114701314
 22
150.125333233564
 32
0.0
 13
190.992114701314
 23
150.125333233564
 33
0.0
  0
SOLID
  5
23A
100
AcDbEntity
  8
画層0
100
AcDbTrace
 10
190.992114701314
 20
149.874666766436
 30
0.0
 11
190.992114701314
 21
150.125333233564
 31
0.0
 12
190.968583161129
 22
150.248689887165
 32
0.0
 13
190.968583161129
 23
150.248689887165
 33
0.0
  0
SOLID
  5
23B
100
AcDbEntity
  8
画層0
100
AcDbTrace
 10
190.992114701314
 20
149.874666766436
 30
0.0
 11
190.968583161129
 21
150.248689887165
 31
0.0
 12
190.929776485888
 22
150.368124552685
 32
0.0
 13
190.929776485888
 23
150.368124552685
 33
0.0
  0
SOLID
  5
23C
100
AcDbEntity
  8
画層0
100
AcDbTrace
 10
190.992114701314
 20
149.874666766436
 30
0.0
 11
190.929776485888
 21
150.368124552685
 31
0.0
 12
190.876306680044
 22
150.481753674102
 32
0.0
 13
190.876306680044
 23
150.481753674102
 33
0.0
  0
SOLID
  5
23D
100
AcDbEntity
  8
画層0
100
AcDbTrace
 10
190.992114701314
 20
149.874666766436
 30
0.0
 11
190.876306680044
 21
150.481753674102
 31
0.0
 12
190.809016994375
 22
150.587785252292
 32
0.0
 13
190.809016994375
 23
150.587785252292
 33
0.0
  0
SOLID
  5
23E
100
AcDbEntity
  8
画層0
100
AcDbTrace
 10
190.992114701314
 20
149.874666766436
 30
0.0
 11
190.809016994375
 21
150.587785252292
 31
0.0
 12
190.728968627421
 22
150.684547105929
 32
0.0
 13
190.728968627421
 23
150.684547105929
 33
0.0
  0
SOLID
  5
23F
100
AcDbEntity
  8
画層0
100
AcDbTrace
 10
190.992114701314
 20
149.874666766436
 30
0.0
 11
190.728968627421
 21
150.684547105929
 31
0.0
 12
190.637423989749
 22
150.770513242776
 32
0.0
 13
190.637423989749
 23
150.770513242776
 33
0.0
  0
SOLID
  5
240
100
AcDbEntity
  8
画層0
100
AcDbTrace
 10
190.992114701314
 20
149.874666766436
 30
0.0
 11
190.637423989749
 21
150.770513242776
 31
0.0
 12
190.535826794979
 22
150.844327925502
 32
0.0
 13
190.535826794979
 23
150.844327925502
 33
0.0
  0
SOLID
  5
241
100
AcDbEntity
  8
画層0
100
AcDbTrace
 10
190.992114701314
 20
149.874666766436
 30
0.0
 11
190.535826794979
 21
150.844327925502
 31
0.0
 12
190.425779291565
 22
150.904827052466
 32
0.0
 13
190.425779291565
 23
150.904827052466
 33
0.0
  0
SOLID
  5
242
100
AcDbEntity
  8
画層0
100
AcDbTrace
 10
190.992114701314
 20
149.874666766436
 30
0.0
 11
190.425779291565
 21
150.904827052466
 31
0.0
 12
190.309016994375
 22
150.951056516295
 32
0.0
 13
190.309016994375
 23
150.951056516295
 33
0.0
  0
SOLID
  5
243
100
AcDbEntity
  8
画層0
100
AcDbTrace
 10
190.992114701314
 20
149.874666766436
 30
0.0
 11
190.309016994375
 21
150.951056516295
 31
0.0
 12
190.187381314586
 22
150.982287250729
 32
0.0
 13
190.187381314586
 23
150.982287250729
 33
0.0
  0
SOLID
  5
244
100
AcDbEntity
  8
画層0
100
AcDbTrace
 10
190.992114701314
 20
149.874666766436
 30
0.0
 11
190.187381314586
 21
150.982287250729
 31
0.0
 12
190.062790519529
 22
150.998026728428
 32
0.0
 13
190.062790519529
 23
150.998026728428
 33
0.0
  0
SOLID
  5
245
100
AcDbEntity
  8
画層0
100
AcDbTrace
 10
190.992114701314
 20
149.874666766436
 30
0.0
 11
190.062790519529
 21
150.998026728428
 31
0.0
 12
189.937209480471
 22
150.998026728428
 32
0.0
 13
189.937209480471
 23
150.998026728428
 33
0.0
  0
SOLID
  5
246
100
AcDbEntity
  8
画層0
100
AcDbTrace
 10
190.992114701314
 20
149.874666766436
 30
0.0
 11
189.937209480471
 21
150.998026728428
 31
0.0
 12
189.812618685414
 22
150.982287250729
 32
0.0
 13
189.812618685414
 23
150.982287250729
 33
0.0
  0
SOLID
  5
247
100
AcDbEntity
  8
画層0
100
AcDbTrace
 10
190.992114701314
 20
149.874666766436
 30
0.0
 11
189.812618685414
 21
150.982287250729
 31
0.0
 12
189.690983005625
 22
150.951056516295
 32
0.0
 13
189.690983005625
 23
150.951056516295
 33
0.0
  0
SOLID
  5
248
100
AcDbEntity
  8
画層0
100
AcDbTrace
 10
190.992114701314
 20
149.874666766436
 30
0.0
 11
189.690983005625
 21
150.951056516295
 31
0.0
 12
189.574220708435
 22
150.904827052466
 32
0.0
 13
189.574220708435
 23
150.904827052466
 33
0.0
  0
SOLID
  5
249
100
AcDbEntity
  8
画層0
100
AcDbTrace
 10
190.992114701314
 20
149.874666766436
 30
0.0
 11
189.574220708435
 21
150.904827052466
 31
0.0
 12
189.464173205021
 22
150.844327925502
 32
0.0
 13
189.464173205021
 23
150.844327925502
 33
0.0
  0
SOLID
  5
24A
100
AcDbEntity
  8
画層0
100
AcDbTrace
 10
190.992114701314
 20
149.874666766436
 30
0.0
 11
189.464173205021
 21
150.844327925502
 31
0.0
 12
189.362576010251
 22
150.770513242776
 32
0.0
 13
189.362576010251
 23
150.770513242776
 33
0.0
  0
SOLID
  5
24B
100
AcDbEntity
  8
画層0
100
AcDbTrace
 10
190.992114701314
 20
149.874666766436
 30
0.0
 11
189.362576010251
 21
150.770513242776
 31
0.0
 12
189.271031372579
 22
150.684547105929
 32
0.0
 13
189.271031372579
 23
150.684547105929
 33
0.0
  0
SOLID
  5
24C
100
AcDbEntity
  8
画層0
100
AcDbTrace
 10
190.992114701314
 20
149.874666766436
 30
0.0
 11
189.271031372579
 21
150.684547105929
 31
0.0
 12
189.190983005625
 22
150.587785252292
 32
0.0
 13
189.190983005625
 23
150.587785252292
 33
0.0
  0
SOLID
  5
24D
100
AcDbEntity
  8
画層0
100
AcDbTrace
 10
190.992114701314
 20
149.874666766436
 30
0.0
 11
189.190983005625
 21
150.587785252292
 31
0.0
 12
189.123693319956
 22
150.481753674102
 32
0.0
 13
189.123693319956
 23
150.481753674102
 33
0.0
  0
SOLID
  5
24E
100
AcDbEntity
  8
画層0
100
AcDbTrace
 10
190.992114701314
 20
149.874666766436
 30
0.0
 11
189.123693319956
 21
150.481753674102
 31
0.0
 12
189.070223514112
 22
150.368124552685
 32
0.0
 13
189.070223514112
 23
150.368124552685
 33
0.0
  0
SOLID
  5
24F
100
AcDbEntity
  8
画層0
100
AcDbTrace
 10
190.992114701314
 20
149.874666766436
 30
0.0
 11
189.070223514112
 21
150.368124552685
 31
0.0
 12
189.031416838871
 22
150.248689887165
 32
0.0
 13
189.031416838871
 23
150.248689887165
 33
0.0
  0
SOLID
  5
250
100
AcDbEntity
  8
画層0
100
AcDbTrace
 10
190.992114701314
 20
149.874666766436
 30
0.0
 11
189.031416838871
 21
150.248689887165
 31
0.0
 12
189.007885298686
 22
150.125333233564
 32
0.0
 13
189.007885298686
 23
150.125333233564
 33
0.0
  0
SOLID
  5
251
100
AcDbEntity
  8
画層0
100
AcDbTrace
 10
190.992114701314
 20
149.874666766436
 30
0.0
 11
189.007885298686
 21
150.125333233564
 31
0.0
 12
189
 22
150
 32
0.0
 13
189
 23
150
 33
0.0
  0
SOLID
  5
252
100
AcDbEntity
  8
画層0
100
AcDbTrace
 10
190.992114701314
 20
149.874666766436
 30
0.0
 11
189
 21
150
 31
0.0
 12
189.007885298686
 22
149.874666766436
 32
0.0
 13
189.007885298686
 23
149.874666766436
 33
0.0
  0
SOLID
  5
253
100
AcDbEntity
  8
画層0
100
AcDbTrace
 10
190.992114701314
 20
149.874666766436
 30
0.0
 11
189.007885298686
 21
149.874666766436
 31
0.0
 12
189.031416838871
 22
149.751310112835
 32
0.0
 13
189.031416838871
 23
149.751310112835
 33
0.0
  0
SOLID
  5
254
100
AcDbEntity
  8
画層0
100
AcDbTrace
 10
190.992114701314
 20
149.874666766436
 30
0.0
 11
189.031416838871
 21
149.751310112835
 31
0.0
 12
189.070223514112
 22
149.631875447315
 32
0.0
 13
189.070223514112
 23
149.631875447315
 33
0.0
  0
SOLID
  5
255
100
AcDbEntity
  8
画層0
100
AcDbTrace
 10
190.992114701314
 20
149.874666766436
 30
0.0
 11
189.070223514112
 21
149.631875447315
 31
0.0
 12
189.123693319956
 22
149.518246325898
 32
0.0
 13
189.123693319956
 23
149.518246325898
 33
0.0
  0
SOLID
  5
256
100
AcDbEntity
  8
画層0
100
AcDbTrace
 10
190.992114701314
 20
149.874666766436
 30
0.0
 11
189.123693319956
 21
149.518246325898
 31
0.0
 12
189.190983005625
 22
149.412214747708
 32
0.0
 13
189.190983005625
 23
149.412214747708
 33
0.0
  0
SOLID
  5
257
100
AcDbEntity
  8
画層0
100
AcDbTrace
 10
190.992114701314
 20
149.874666766436
 30
0.0
 11
189.190983005625
 21
149.412214747708
 31
0.0
 12
189.271031372579
 22
149.315452894071
 32
0.0
 13
189.271031372579
 23
149.315452894071
 33
0.0
  0
SOLID
  5
258
100
AcDbEntity
  8
画層0
100
AcDbTrace
 10
190.992114701314
 20
149.874666766436
 30
0.0
 11
189.271031372579
 21
149.315452894071
 31
0.0
 12
189.362576010251
 22
149.229486757224
 32
0.0
 13
189.362576010251
 23
149.229486757224
 33
0.0
  0
SOLID
  5
259
100
AcDbEntity
  8
画層0
100
AcDbTrace
 10
190.992114701314
 20
149.874666766436
 30
0.0
 11
189.362576010251
 21
149.229486757224
 31
0.0
 12
189.464173205021
 22
149.155672074498
 32
0.0
 13
189.464173205021
 23
149.155672074498
 33
0.0
  0
SOLID
  5
25A
100
AcDbEntity
  8
画層0
100
AcDbTrace
 10
190.992114701314
 20
149.874666766436
 30
0.0
 11
189.464173205021
 21
149.155672074498
 31
0.0
 12
189.574220708435
 22
149.095172947534
 32
0.0
 13
189.574220708435
 23
149.095172947534
 33
0.0
  0
SOLID
  5
25B
100
AcDbEntity
  8
画層0
100
AcDbTrace
 10
190.992114701314
 20
149.874666766436
 30
0.0
 11
189.574220708435
 21
149.095172947534
 31
0.0
 12
189.690983005625
 22
149.048943483705
 32
0.0
 13
189.690983005625
 23
149.048943483705
 33
0.0
  0
SOLID
  5
25C
100
AcDbEntity
  8
画層0
100
AcDbTrace
 10
190.992114701314
 20
149.874666766436
 30
0.0
 11
189.690983005625
 21
149.048943483705
 31
0.0
 12
189.812618685414
 22
149.017712749271
 32
0.0
 13
189.812618685414
 23
149.017712749271
 33
0.0
  0
SOLID
  5
25D
100
AcDbEntity
  8
画層0
100
AcDbTrace
 10
190.992114701314
 20
149.874666766436
 30
0.0
 11
189.812618685414
 21
149.017712749271
 31
0.0
 12
189.937209480471
 22
149.001973271572
 32
0.0
 13
189.937209480471
 23
149.001973271572
 33
0.0
  0
SOLID
  5
25E
100
AcDbEntity
  8
画層0
100
AcDbTrace
 10
190.992114701314
 20
149.874666766436
 30
0.0
 11
189.937209480471
 21
149.001973271572
 31
0.0
 12
190.062790519529
 22
149.001973271572
 32
0.0
 13
190.062790519529
 23
149.001973271572
 33
0.0
  0
SOLID
  5
25F
100
AcDbEntity
  8
画層0
100
AcDbTrace
 10
190.992114701314
 20
149.874666766436
 30
0.0
 11
190.062790519529
 21
149.001973271572
 31
0.0
 12
190.187381314586
 22
149.017712749271
 32
0.0
 13
190.187381314586
 23
149.017712749271
 33
0.0
  0
SOLID
  5
260
100
AcDbEntity
  8
画層0
100
AcDbTrace
 10
190.992114701314
 20
149.874666766436
 30
0.0
 11
190.187381314586
 21
149.017712749271
 31
0.0
 12
190.309016994375
 22
149.048943483705
 32
0.0
 13
190.309016994375
 23
149.048943483705
 33
0.0
  0
SOLID
  5
261
100
AcDbEntity
  8
画層0
100
AcDbTrace
 10
190.992114701314
 20
149.874666766436
 30
0.0
 11
190.309016994375
 21
149.048943483705
 31
0.0
 12
190.425779291565
 22
149.095172947534
 32
0.0
 13
190.425779291565
 23
149.095172947534
 33
0.0
  0
SOLID
  5
262
100
AcDbEntity
  8
画層0
100
AcDbTrace
 10
190.992114701314
 20
149.874666766436
 30
0.0
 11
190.425779291565
 21
149.095172947534
 31
0.0
 12
190.535826794979
 22
149.155672074498
 32
0.0
 13
190.535826794979
 23
149.155672074498
 33
0.0
  0
SOLID
  5
263
100
AcDbEntity
  8
画層0
100
AcDbTrace
 10
190.992114701314
 20
149.874666766436
 30
0.0
 11
190.535826794979
 21
149.155672074498
 31
0.0
 12
190.637423989749
 22
149.229486757224
 32
0.0
 13
190.637423989749
 23
149.229486757224
 33
0.0
  0
SOLID
  5
264
100
AcDbEntity
  8
画層0
100
AcDbTrace
 10
190.992114701314
 20
149.874666766436
 30
0.0
 11
190.637423989749
 21
149.229486757224
 31
0.0
 12
190.728968627421
 22
149.315452894071
 32
0.0
 13
190.728968627421
 23
149.315452894071
 33
0.0
  0
SOLID
  5
265
100
AcDbEntity
  8
画層0
100
AcDbTrace
 10
190.992114701314
 20
149.874666766436
 30
0.0
 11
190.728968627421
 21
149.315452894071
 31
0.0
 12
190.809016994375
 22
149.412214747708
 32
0.0
 13
190.809016994375
 23
149.412214747708
 33
0.0
  0
SOLID
  5
266
100
AcDbEntity
  8
画層0
100
AcDbTrace
 10
190.992114701314
 20
149.874666766436
 30
0.0
 11
190.809016994375
 21
149.412214747708
 31
0.0
 12
190.876306680044
 22
149.518246325898
 32
0.0
 13
190.876306680044
 23
149.518246325898
 33
0.0
  0
SOLID
  5
267
100
AcDbEntity
  8
画層0
100
AcDbTrace
 10
190.992114701314
 20
149.874666766436
 30
0.0
 11
190.876306680044
 21
149.518246325898
 31
0.0
 12
190.929776485888
 22
149.631875447315
 32
0.0
 13
190.929776485888
 23
149.631875447315
 33
0.0
  0
SOLID
  5
268
100
AcDbEntity
  8
画層0
100
AcDbTrace
 10
190.992114701314
 20
149.874666766436
 30
0.0
 11
190.929776485888
 21
149.631875447315
 31
0.0
 12
190.968583161129
 22
149.751310112835
 32
0.0
 13
190.968583161129
 23
149.751310112835
 33
0.0
  0
CIRCLE
  5
269
100
AcDbEntity
  8
画層0
100
AcDbCircle
  6
CONTINUOUS
 10
120
 20
170
 40
2
  0
LINE
  5
26A
100
AcDbEntity
  8
画層0
100
AcDbLine
  6
CONTINUOUS
 10
130
 20
170
 11
110
 21
170
  0
LINE
  5
26B
100
AcDbEntity
  8
画層0
100
AcDbLine
  6
CONTINUOUS
 10
245
 20
115
 11
235
 21
115
  0
LINE
  5
26C
100
AcDbEntity
  8
画層0
100
AcDbLine
  6
CONTINUOUS
 10
245
 20
115
 11
241.666666666667
 21
110
  0
LINE
  5
26D
100
AcDbEntity
  8
画層0
100
AcDbLine
  6
CONTINUOUS
 10
235
 20
110
 11
238.333333333333
 21
115
  0
LINE
  5
26E
100
AcDbEntity
  8
画層0
100
AcDbLine
  6
CONTINUOUS
 10
238.333333333333
 20
110
 11
241.666666666667
 21
115
  0
LINE
  5
26F
100
AcDbEntity
  8
画層0
100
AcDbLine
  6
CONTINUOUS
 10
240
 20
120
 11
240
 21
115
  0
LINE
  5
270
100
AcDbEntity
  8
画層0
100
AcDbLine
  6
CONTINUOUS
 10
235
 20
114.5
 11
245
 21
114.5
  0
LINE
  5
271
100
AcDbEntity
  8
画層0
100
AcDbLine
  6
CONTINUOUS
 10
235
 20
115.5
 11
245
 21
115.5
  0
LWPOLYLINE
  5
272
100
AcDbEntity
  8
画層0
100
AcDbPolyline
  6
CONTINUOUS
 90
     4
 70
     1
 10
245
  20
114.5
 10
235
  20
114.5
 10
235
  20
115.5
 10
245
  20
115.5
  0
SOLID
  5
273
100
AcDbEntity
  8
画層0
100
AcDbTrace
 10
245
 20
114.5
 30
0.0
 11
235
 21
114.5
 31
0.0
 12
245
 22
115.5
 32
0.0
 13
235
 23
115.5
 33
0.0
  0
LINE
  5
274
100
AcDbEntity
  8
画層0
100
AcDbLine
  6
CONTINUOUS
 10
232.5
 20
80
 11
230
 21
80
  0
LINE
  5
275
100
AcDbEntity
  8
画層0
100
AcDbLine
  6
CONTINUOUS
 10
240
 20
90
 11
240
 21
80
  0
LINE
  5
276
100
AcDbEntity
  8
画層0
100
AcDbLine
  6
CONTINUOUS
 10
240
 20
140
 11
240
 21
150
  0
LINE
  5
277
100
AcDbEntity
  8
画層0
100
AcDbLine
  6
CONTINUOUS
 10
240
 20
150
 11
210
 21
150
  0
LINE
  5
278
100
AcDbEntity
  8
画層0
100
AcDbLine
  6
CONTINUOUS
 10
240
 20
60
 11
240
 21
50
  0
LINE
  5
279
100
AcDbEntity
  8
画層0
100
AcDbLine
  6
CONTINUOUS
 10
220
 20
50
 11
200
 21
60
  0
LINE
  5
27A
100
AcDbEntity
  8
画層0
100
AcDbLine
  6
CONTINUOUS
 10
200
 20
60
 11
200
 21
40
  0
LINE
  5
27B
100
AcDbEntity
  8
画層0
100
AcDbLine
  6
CONTINUOUS
 10
200
 20
40
 11
220
 21
50
  0
CIRCLE
  5
27C
100
AcDbEntity
  8
画層0
100
AcDbCircle
  6
CONTINUOUS
 10
222
 20
50
 40
2
  0
LINE
  5
27D
100
AcDbEntity
  8
画層0
100
AcDbLine
  6
CONTINUOUS
 10
200
 20
50
 11
190
 21
50
  0
LINE
  5
27E
100
AcDbEntity
  8
画層0
100
AcDbLine
  6
CONTINUOUS
 10
190
 20
150
 11
190
 21
60
  0
LINE
  5
27F
100
AcDbEntity
  8
画層0
100
AcDbLine
  6
CONTINUOUS
 10
230
 20
80
 11
220
 21
80
  0
LINE
  5
280
100
AcDbEntity
  8
画層0
100
AcDbLine
  6
CONTINUOUS
 10
220
 20
90
 11
220
 21
120
  0
LINE
  5
281
100
AcDbEntity
  8
画層0
100
AcDbLine
  6
CONTINUOUS
 10
220
 20
120
 11
230
 21
120
  0
LINE
  5
282
100
AcDbEntity
  8
画層0
100
AcDbLine
  6
CONTINUOUS
 10
250
 20
120
 11
260
 21
120
  0
LINE
  5
283
100
AcDbEntity
  8
画層0
100
AcDbLine
  6
CONTINUOUS
 10
260
 20
120
 11
260
 21
90
  0
LINE
  5
284
100
AcDbEntity
  8
画層0
100
AcDbLine
  6
CONTINUOUS
 10
260
 20
80
 11
250
 21
80
  0
LINE
  5
285
100
AcDbEntity
  8
画層0
100
AcDbLine
  6
CONTINUOUS
 10
220
 20
80
 11
220
 21
90
  0
LINE
  5
286
100
AcDbEntity
  8
画層0
100
AcDbLine
  6
CONTINUOUS
 10
260
 20
80
 11
260
 21
90
  0
LINE
  5
287
100
AcDbEntity
  8
画層0
100
AcDbLine
  6
CONTINUOUS
 10
190
 20
50
 11
190
 21
60
  0
LINE
  5
288
100
AcDbEntity
  8
画層0
100
AcDbLine
  6
CONTINUOUS
 10
255
 20
180
 11
255
 21
185
  0
LINE
  5
289
100
AcDbEntity
  8
画層0
100
AcDbLine
  6
CONTINUOUS
 10
260
 20
182.5
 11
255
 21
185
  0
LINE
  5
28A
100
AcDbEntity
  8
画層0
100
AcDbLine
  6
CONTINUOUS
 10
260
 20
182.5
 11
255
 21
180
  0
LINE
  5
28B
100
AcDbEntity
  8
画層0
100
AcDbLine
  6
CONTINUOUS
 10
255
 20
180
 11
255
 21
175
  0
LINE
  5
28C
100
AcDbEntity
  8
画層0
100
AcDbLine
  6
CONTINUOUS
 10
255
 20
175
 11
260
 21
177.5
  0
LINE
  5
28D
100
AcDbEntity
  8
画層0
100
AcDbLine
  6
CONTINUOUS
 10
260
 20
177.5
 11
255
 21
180
  0
LINE
  5
28E
100
AcDbEntity
  8
画層0
100
AcDbLine
  6
CONTINUOUS
 10
260
 20
182.5
 11
265
 21
185
  0
LINE
  5
28F
100
AcDbEntity
  8
画層0
100
AcDbLine
  6
CONTINUOUS
 10
265
 20
185
 11
265
 21
180
  0
LINE
  5
290
100
AcDbEntity
  8
画層0
100
AcDbLine
  6
CONTINUOUS
 10
265
 20
180
 11
260
 21
182.5
  0
LINE
  5
291
100
AcDbEntity
  8
画層0
100
AcDbLine
  6
CONTINUOUS
 10
265
 20
180
 11
260
 21
177.5
  0
LINE
  5
292
100
AcDbEntity
  8
画層0
100
AcDbLine
  6
CONTINUOUS
 10
260
 20
177.5
 11
265
 21
175
  0
LINE
  5
293
100
AcDbEntity
  8
画層0
100
AcDbLine
  6
CONTINUOUS
 10
265
 20
175
 11
265
 21
180
  0
LINE
  5
294
100
AcDbEntity
  8
画層0
100
AcDbLine
  6
CONTINUOUS
 10
260
 20
177.5
 11
260
 21
172.5
  0
LINE
  5
295
100
AcDbEntity
  8
画層0
100
AcDbLine
  6
CONTINUOUS
 10
255
 20
180
 11
250
 21
180
  0
LINE
  5
296
100
AcDbEntity
  8
画層0
100
AcDbLine
  6
CONTINUOUS
 10
265
 20
180
 11
270
 21
180
  0
LINE
  5
297
100
AcDbEntity
  8
画層0
100
AcDbLine
  6
CONTINUOUS
 10
110
 20
80
 11
120
 21
80
  0
LINE
  5
298
100
AcDbEntity
  8
画層0
100
AcDbLine
  6
CONTINUOUS
 10
110
 20
120
 11
120
 21
120
  0
LINE
  5
299
100
AcDbEntity
  8
画層0
100
AcDbLine
  6
CONTINUOUS
 10
110
 20
70
 11
110
 21
60
  0
LINE
  5
29A
100
AcDbEntity
  8
画層0
100
AcDbLine
  6
CONTINUOUS
 10
110
 20
60
 11
80
 21
60
  0
LINE
  5
29B
100
AcDbEntity
  8
画層0
100
AcDbLine
  6
CONTINUOUS
 10
110
 20
140
 11
80
 21
140
  0
LINE
  5
29C
100
AcDbEntity
  8
画層0
100
AcDbLine
  6
CONTINUOUS
 10
70
 20
120
 11
70
 21
80
  0
LINE
  5
29D
100
AcDbEntity
  8
画層0
100
AcDbLine
  6
CONTINUOUS
 10
120
 20
160
 11
120
 21
170
  0
LINE
  5
29E
100
AcDbEntity
  8
画層0
100
AcDbLine
  6
CONTINUOUS
 10
110
 20
130
 11
110
 21
140
  0
LINE
  5
29F
100
AcDbEntity
  8
画層0
100
AcDbLine
  6
CONTINUOUS
 10
60
 20
120
 11
40
 21
130
  0
LINE
  5
2A0
100
AcDbEntity
  8
画層0
100
AcDbLine
  6
CONTINUOUS
 10
40
 20
130
 11
40
 21
110
  0
LINE
  5
2A1
100
AcDbEntity
  8
画層0
100
AcDbLine
  6
CONTINUOUS
 10
40
 20
110
 11
60
 21
120
  0
LINE
  5
2A2
100
AcDbEntity
  8
画層0
100
AcDbLine
  6
CONTINUOUS
 10
40
 20
120
 11
30
 21
120
  0
LINE
  5
2A3
100
AcDbEntity
  8
画層0
100
AcDbLine
  6
CONTINUOUS
 10
30
 20
120
 11
25
 21
122.5
  0
LINE
  5
2A4
100
AcDbEntity
  8
画層0
100
AcDbLine
  6
CONTINUOUS
 10
30
 20
120
 11
25
 21
117.5
  0
LINE
  5
2A5
100
AcDbEntity
  8
画層0
100
AcDbLine
  6
CONTINUOUS
 10
10
 20
117.5
 11
10
 21
122.5
  0
LINE
  5
2A6
100
AcDbEntity
  8
画層0
100
AcDbLine
  6
CONTINUOUS
 10
25
 20
117.5
 11
10
 21
117.5
  0
LINE
  5
2A7
100
AcDbEntity
  8
画層0
100
AcDbLine
  6
CONTINUOUS
 10
25
 20
122.5
 11
10
 21
122.5
  0
LINE
  5
2A8
100
AcDbEntity
  8
画層0
100
AcDbLine
  6
CONTINUOUS
 10
30
 20
60
 11
25
 21
62.5
  0
LINE
  5
2A9
100
AcDbEntity
  8
画層0
100
AcDbLine
  6
CONTINUOUS
 10
30
 20
60
 11
25
 21
57.5
  0
LINE
  5
2AA
100
AcDbEntity
  8
画層0
100
AcDbLine
  6
CONTINUOUS
 10
10
 20
57.5
 11
10
 21
62.5
  0
LINE
  5
2AB
100
AcDbEntity
  8
画層0
100
AcDbLine
  6
CONTINUOUS
 10
25
 20
57.5
 11
10
 21
57.5
  0
LINE
  5
2AC
100
AcDbEntity
  8
画層0
100
AcDbLine
  6
CONTINUOUS
 10
25
 20
62.5
 11
10
 21
62.5
  0
LINE
  5
2AD
100
AcDbEntity
  8
画層0
100
AcDbLine
  6
CONTINUOUS
 10
80
 20
140
 11
80
 21
60
  0
LINE
  5
2AE
100
AcDbEntity
  8
画層0
100
AcDbLine
  6
CONTINUOUS
 10
120
 20
120
 11
120
 21
160
  0
LINE
  5
2AF
100
AcDbEntity
  8
画層0
100
AcDbLine
  6
CONTINUOUS
 10
120
 20
80
 11
120
 21
40
  0
LINE
  5
2B0
100
AcDbEntity
  8
画層0
100
AcDbLine
  6
CONTINUOUS
 10
70
 20
120
 11
80
 21
120
  0
LINE
  5
2B1
100
AcDbEntity
  8
画層0
100
AcDbLine
  6
CONTINUOUS
 10
70
 20
80
 11
80
 21
80
  0
LINE
  5
2B2
100
AcDbEntity
  8
画層0
100
AcDbLine
  6
CONTINUOUS
 10
80
 20
60
 11
30
 21
60
  0
LINE
  5
2B3
100
AcDbEntity
  8
画層0
100
AcDbLine
  6
CONTINUOUS
 10
130
 20
100
 11
110
 21
100
  0
LINE
  5
2B4
100
AcDbEntity
  8
画層0
100
AcDbLine
  6
CONTINUOUS
 10
150
 20
97.5
 11
150
 21
102.5
  0
LINE
  5
2B5
100
AcDbEntity
  8
画層0
100
AcDbLine
  6
CONTINUOUS
 10
270
 20
100
 11
275
 21
102.5
  0
LINE
  5
2B6
100
AcDbEntity
  8
画層0
100
AcDbLine
  6
CONTINUOUS
 10
270
 20
100
 11
275
 21
97.5
  0
LINE
  5
2B7
100
AcDbEntity
  8
画層0
100
AcDbLine
  6
CONTINUOUS
 10
275
 20
102.5
 11
290
 21
102.5
  0
LINE
  5
2B8
100
AcDbEntity
  8
画層0
100
AcDbLine
  6
CONTINUOUS
 10
275
 20
97.5
 11
290
 21
97.5
  0
LINE
  5
2B9
100
AcDbEntity
  8
画層0
100
AcDbLine
  6
CONTINUOUS
 10
290
 20
97.5
 11
290
 21
102.5
  0
LINE
  5
2BA
100
AcDbEntity
  8
画層0
100
AcDbLine
  6
CONTINUOUS
 10
270
 20
100
 11
260
 21
100
  0
LINE
  5
2BB
100
AcDbEntity
  8
画層0
100
AcDbLine
  6
CONTINUOUS
 10
224
 20
50
 11
240
 21
50
  0
LINE
  5
2BC
100
AcDbEntity
  8
画層0
100
AcDbLine
  6
CONTINUOUS
 10
200
 20
50
 11
190
 21
50
  0
LINE
  5
2BD
100
AcDbEntity
  8
画層0
100
AcDbLine
  6
CONTINUOUS
 10
210
 20
150
 11
190
 21
150
  0
LINE
  5
2BE
100
AcDbEntity
  8
画層0
100
AcDbLine
  6
CONTINUOUS
 10
220
 20
100
 11
190
 21
100
  0
LINE
  5
2BF
100
AcDbEntity
  8
画層0
100
AcDbLine
  6
CONTINUOUS
 10
180
 20
100
 11
190
 21
100
  0
LINE
  5
2C0
100
AcDbEntity
  8
画層0
100
AcDbLine
  6
CONTINUOUS
 10
180
 20
150
 11
190
 21
150
  0
LINE
  5
2C1
100
AcDbEntity
  8
画層0
100
AcDbLine
  6
CONTINUOUS
 10
180
 20
150
 11
175
 21
152.5
  0
LINE
  5
2C2
100
AcDbEntity
  8
画層0
100
AcDbLine
  6
CONTINUOUS
 10
180
 20
150
 11
175
 21
147.5
  0
LINE
  5
2C3
100
AcDbEntity
  8
画層0
100
AcDbLine
  6
CONTINUOUS
 10
160
 20
147.5
 11
160
 21
152.5
  0
LINE
  5
2C4
100
AcDbEntity
  8
画層0
100
AcDbLine
  6
CONTINUOUS
 10
175
 20
147.5
 11
160
 21
147.5
  0
LINE
  5
2C5
100
AcDbEntity
  8
画層0
100
AcDbLine
  6
CONTINUOUS
 10
175
 20
152.5
 11
160
 21
152.5
  0
CIRCLE
  5
2C6
100
AcDbEntity
  8
画層0
100
AcDbCircle
  6
CONTINUOUS
 10
70
 20
120
 40
1
  0
SOLID
  5
2C7
100
AcDbEntity
  8
画層0
100
AcDbTrace
 10
70.9921147013145
 20
119.874666766436
 30
0.0
 11
71
 21
120
 31
0.0
 12
70.9921147013145
 22
120.125333233564
 32
0.0
 13
70.9921147013145
 23
120.125333233564
 33
0.0
  0
SOLID
  5
2C8
100
AcDbEntity
  8
画層0
100
AcDbTrace
 10
70.9921147013145
 20
119.874666766436
 30
0.0
 11
70.9921147013145
 21
120.125333233564
 31
0.0
 12
70.9685831611286
 22
120.248689887165
 32
0.0
 13
70.9685831611286
 23
120.248689887165
 33
0.0
  0
SOLID
  5
2C9
100
AcDbEntity
  8
画層0
100
AcDbTrace
 10
70.9921147013145
 20
119.874666766436
 30
0.0
 11
70.9685831611286
 21
120.248689887165
 31
0.0
 12
70.9297764858883
 22
120.368124552685
 32
0.0
 13
70.9297764858883
 23
120.368124552685
 33
0.0
  0
SOLID
  5
2CA
100
AcDbEntity
  8
画層0
100
AcDbTrace
 10
70.9921147013145
 20
119.874666766436
 30
0.0
 11
70.9297764858883
 21
120.368124552685
 31
0.0
 12
70.8763066800439
 22
120.481753674102
 32
0.0
 13
70.8763066800439
 23
120.481753674102
 33
0.0
  0
SOLID
  5
2CB
100
AcDbEntity
  8
画層0
100
AcDbTrace
 10
70.9921147013145
 20
119.874666766436
 30
0.0
 11
70.8763066800439
 21
120.481753674102
 31
0.0
 12
70.8090169943749
 22
120.587785252292
 32
0.0
 13
70.8090169943749
 23
120.587785252292
 33
0.0
  0
SOLID
  5
2CC
100
AcDbEntity
  8
画層0
100
AcDbTrace
 10
70.9921147013145
 20
119.874666766436
 30
0.0
 11
70.8090169943749
 21
120.587785252292
 31
0.0
 12
70.7289686274214
 22
120.684547105929
 32
0.0
 13
70.7289686274214
 23
120.684547105929
 33
0.0
  0
SOLID
  5
2CD
100
AcDbEntity
  8
画層0
100
AcDbTrace
 10
70.9921147013145
 20
119.874666766436
 30
0.0
 11
70.7289686274214
 21
120.684547105929
 31
0.0
 12
70.6374239897487
 22
120.770513242776
 32
0.0
 13
70.6374239897487
 23
120.770513242776
 33
0.0
  0
SOLID
  5
2CE
100
AcDbEntity
  8
画層0
100
AcDbTrace
 10
70.9921147013145
 20
119.874666766436
 30
0.0
 11
70.6374239897487
 21
120.770513242776
 31
0.0
 12
70.535826794979
 22
120.844327925502
 32
0.0
 13
70.535826794979
 23
120.844327925502
 33
0.0
  0
SOLID
  5
2CF
100
AcDbEntity
  8
画層0
100
AcDbTrace
 10
70.9921147013145
 20
119.874666766436
 30
0.0
 11
70.535826794979
 21
120.844327925502
 31
0.0
 12
70.4257792915651
 22
120.904827052466
 32
0.0
 13
70.4257792915651
 23
120.904827052466
 33
0.0
  0
SOLID
  5
2D0
100
AcDbEntity
  8
画層0
100
AcDbTrace
 10
70.9921147013145
 20
119.874666766436
 30
0.0
 11
70.4257792915651
 21
120.904827052466
 31
0.0
 12
70.3090169943749
 22
120.951056516295
 32
0.0
 13
70.3090169943749
 23
120.951056516295
 33
0.0
  0
SOLID
  5
2D1
100
AcDbEntity
  8
画層0
100
AcDbTrace
 10
70.9921147013145
 20
119.874666766436
 30
0.0
 11
70.3090169943749
 21
120.951056516295
 31
0.0
 12
70.1873813145857
 22
120.982287250729
 32
0.0
 13
70.1873813145857
 23
120.982287250729
 33
0.0
  0
SOLID
  5
2D2
100
AcDbEntity
  8
画層0
100
AcDbTrace
 10
70.9921147013145
 20
119.874666766436
 30
0.0
 11
70.1873813145857
 21
120.982287250729
 31
0.0
 12
70.0627905195293
 22
120.998026728428
 32
0.0
 13
70.0627905195293
 23
120.998026728428
 33
0.0
  0
SOLID
  5
2D3
100
AcDbEntity
  8
画層0
100
AcDbTrace
 10
70.9921147013145
 20
119.874666766436
 30
0.0
 11
70.0627905195293
 21
120.998026728428
 31
0.0
 12
69.9372094804707
 22
120.998026728428
 32
0.0
 13
69.9372094804707
 23
120.998026728428
 33
0.0
  0
SOLID
  5
2D4
100
AcDbEntity
  8
画層0
100
AcDbTrace
 10
70.9921147013145
 20
119.874666766436
 30
0.0
 11
69.9372094804707
 21
120.998026728428
 31
0.0
 12
69.8126186854143
 22
120.982287250729
 32
0.0
 13
69.8126186854143
 23
120.982287250729
 33
0.0
  0
SOLID
  5
2D5
100
AcDbEntity
  8
画層0
100
AcDbTrace
 10
70.9921147013145
 20
119.874666766436
 30
0.0
 11
69.8126186854143
 21
120.982287250729
 31
0.0
 12
69.6909830056251
 22
120.951056516295
 32
0.0
 13
69.6909830056251
 23
120.951056516295
 33
0.0
  0
SOLID
  5
2D6
100
AcDbEntity
  8
画層0
100
AcDbTrace
 10
70.9921147013145
 20
119.874666766436
 30
0.0
 11
69.6909830056251
 21
120.951056516295
 31
0.0
 12
69.5742207084349
 22
120.904827052466
 32
0.0
 13
69.5742207084349
 23
120.904827052466
 33
0.0
  0
SOLID
  5
2D7
100
AcDbEntity
  8
画層0
100
AcDbTrace
 10
70.9921147013145
 20
119.874666766436
 30
0.0
 11
69.5742207084349
 21
120.904827052466
 31
0.0
 12
69.464173205021
 22
120.844327925502
 32
0.0
 13
69.464173205021
 23
120.844327925502
 33
0.0
  0
SOLID
  5
2D8
100
AcDbEntity
  8
画層0
100
AcDbTrace
 10
70.9921147013145
 20
119.874666766436
 30
0.0
 11
69.464173205021
 21
120.844327925502
 31
0.0
 12
69.3625760102513
 22
120.770513242776
 32
0.0
 13
69.3625760102513
 23
120.770513242776
 33
0.0
  0
SOLID
  5
2D9
100
AcDbEntity
  8
画層0
100
AcDbTrace
 10
70.9921147013145
 20
119.874666766436
 30
0.0
 11
69.3625760102513
 21
120.770513242776
 31
0.0
 12
69.2710313725786
 22
120.684547105929
 32
0.0
 13
69.2710313725786
 23
120.684547105929
 33
0.0
  0
SOLID
  5
2DA
100
AcDbEntity
  8
画層0
100
AcDbTrace
 10
70.9921147013145
 20
119.874666766436
 30
0.0
 11
69.2710313725786
 21
120.684547105929
 31
0.0
 12
69.1909830056251
 22
120.587785252292
 32
0.0
 13
69.1909830056251
 23
120.587785252292
 33
0.0
  0
SOLID
  5
2DB
100
AcDbEntity
  8
画層0
100
AcDbTrace
 10
70.9921147013145
 20
119.874666766436
 30
0.0
 11
69.1909830056251
 21
120.587785252292
 31
0.0
 12
69.1236933199561
 22
120.481753674102
 32
0.0
 13
69.1236933199561
 23
120.481753674102
 33
0.0
  0
SOLID
  5
2DC
100
AcDbEntity
  8
画層0
100
AcDbTrace
 10
70.9921147013145
 20
119.874666766436
 30
0.0
 11
69.1236933199561
 21
120.481753674102
 31
0.0
 12
69.0702235141117
 22
120.368124552685
 32
0.0
 13
69.0702235141117
 23
120.368124552685
 33
0.0
  0
SOLID
  5
2DD
100
AcDbEntity
  8
画層0
100
AcDbTrace
 10
70.9921147013145
 20
119.874666766436
 30
0.0
 11
69.0702235141117
 21
120.368124552685
 31
0.0
 12
69.0314168388714
 22
120.248689887165
 32
0.0
 13
69.0314168388714
 23
120.248689887165
 33
0.0
  0
SOLID
  5
2DE
100
AcDbEntity
  8
画層0
100
AcDbTrace
 10
70.9921147013145
 20
119.874666766436
 30
0.0
 11
69.0314168388714
 21
120.248689887165
 31
0.0
 12
69.0078852986855
 22
120.125333233564
 32
0.0
 13
69.0078852986855
 23
120.125333233564
 33
0.0
  0
SOLID
  5
2DF
100
AcDbEntity
  8
画層0
100
AcDbTrace
 10
70.9921147013145
 20
119.874666766436
 30
0.0
 11
69.0078852986855
 21
120.125333233564
 31
0.0
 12
69
 22
120
 32
0.0
 13
69
 23
120
 33
0.0
  0
SOLID
  5
2E0
100
AcDbEntity
  8
画層0
100
AcDbTrace
 10
70.9921147013145
 20
119.874666766436
 30
0.0
 11
69
 21
120
 31
0.0
 12
69.0078852986855
 22
119.874666766436
 32
0.0
 13
69.0078852986855
 23
119.874666766436
 33
0.0
  0
SOLID
  5
2E1
100
AcDbEntity
  8
画層0
100
AcDbTrace
 10
70.9921147013145
 20
119.874666766436
 30
0.0
 11
69.0078852986855
 21
119.874666766436
 31
0.0
 12
69.0314168388714
 22
119.751310112835
 32
0.0
 13
69.0314168388714
 23
119.751310112835
 33
0.0
  0
SOLID
  5
2E2
100
AcDbEntity
  8
画層0
100
AcDbTrace
 10
70.9921147013145
 20
119.874666766436
 30
0.0
 11
69.0314168388714
 21
119.751310112835
 31
0.0
 12
69.0702235141117
 22
119.631875447315
 32
0.0
 13
69.0702235141117
 23
119.631875447315
 33
0.0
  0
SOLID
  5
2E3
100
AcDbEntity
  8
画層0
100
AcDbTrace
 10
70.9921147013145
 20
119.874666766436
 30
0.0
 11
69.0702235141117
 21
119.631875447315
 31
0.0
 12
69.1236933199561
 22
119.518246325898
 32
0.0
 13
69.1236933199561
 23
119.518246325898
 33
0.0
  0
SOLID
  5
2E4
100
AcDbEntity
  8
画層0
100
AcDbTrace
 10
70.9921147013145
 20
119.874666766436
 30
0.0
 11
69.1236933199561
 21
119.518246325898
 31
0.0
 12
69.1909830056251
 22
119.412214747708
 32
0.0
 13
69.1909830056251
 23
119.412214747708
 33
0.0
  0
SOLID
  5
2E5
100
AcDbEntity
  8
画層0
100
AcDbTrace
 10
70.9921147013145
 20
119.874666766436
 30
0.0
 11
69.1909830056251
 21
119.412214747708
 31
0.0
 12
69.2710313725786
 22
119.315452894071
 32
0.0
 13
69.2710313725786
 23
119.315452894071
 33
0.0
  0
SOLID
  5
2E6
100
AcDbEntity
  8
画層0
100
AcDbTrace
 10
70.9921147013145
 20
119.874666766436
 30
0.0
 11
69.2710313725786
 21
119.315452894071
 31
0.0
 12
69.3625760102513
 22
119.229486757224
 32
0.0
 13
69.3625760102513
 23
119.229486757224
 33
0.0
  0
SOLID
  5
2E7
100
AcDbEntity
  8
画層0
100
AcDbTrace
 10
70.9921147013145
 20
119.874666766436
 30
0.0
 11
69.3625760102513
 21
119.229486757224
 31
0.0
 12
69.464173205021
 22
119.155672074498
 32
0.0
 13
69.464173205021
 23
119.155672074498
 33
0.0
  0
SOLID
  5
2E8
100
AcDbEntity
  8
画層0
100
AcDbTrace
 10
70.9921147013145
 20
119.874666766436
 30
0.0
 11
69.464173205021
 21
119.155672074498
 31
0.0
 12
69.5742207084349
 22
119.095172947534
 32
0.0
 13
69.5742207084349
 23
119.095172947534
 33
0.0
  0
SOLID
  5
2E9
100
AcDbEntity
  8
画層0
100
AcDbTrace
 10
70.9921147013145
 20
119.874666766436
 30
0.0
 11
69.5742207084349
 21
119.095172947534
 31
0.0
 12
69.6909830056251
 22
119.048943483705
 32
0.0
 13
69.6909830056251
 23
119.048943483705
 33
0.0
  0
SOLID
  5
2EA
100
AcDbEntity
  8
画層0
100
AcDbTrace
 10
70.9921147013145
 20
119.874666766436
 30
0.0
 11
69.6909830056251
 21
119.048943483705
 31
0.0
 12
69.8126186854143
 22
119.017712749271
 32
0.0
 13
69.8126186854143
 23
119.017712749271
 33
0.0
  0
SOLID
  5
2EB
100
AcDbEntity
  8
画層0
100
AcDbTrace
 10
70.9921147013145
 20
119.874666766436
 30
0.0
 11
69.8126186854143
 21
119.017712749271
 31
0.0
 12
69.9372094804707
 22
119.001973271572
 32
0.0
 13
69.9372094804707
 23
119.001973271572
 33
0.0
  0
SOLID
  5
2EC
100
AcDbEntity
  8
画層0
100
AcDbTrace
 10
70.9921147013145
 20
119.874666766436
 30
0.0
 11
69.9372094804707
 21
119.001973271572
 31
0.0
 12
70.0627905195293
 22
119.001973271572
 32
0.0
 13
70.0627905195293
 23
119.001973271572
 33
0.0
  0
SOLID
  5
2ED
100
AcDbEntity
  8
画層0
100
AcDbTrace
 10
70.9921147013145
 20
119.874666766436
 30
0.0
 11
70.0627905195293
 21
119.001973271572
 31
0.0
 12
70.1873813145857
 22
119.017712749271
 32
0.0
 13
70.1873813145857
 23
119.017712749271
 33
0.0
  0
SOLID
  5
2EE
100
AcDbEntity
  8
画層0
100
AcDbTrace
 10
70.9921147013145
 20
119.874666766436
 30
0.0
 11
70.1873813145857
 21
119.017712749271
 31
0.0
 12
70.309016994375
 22
119.048943483705
 32
0.0
 13
70.309016994375
 23
119.048943483705
 33
0.0
  0
SOLID
  5
2EF
100
AcDbEntity
  8
画層0
100
AcDbTrace
 10
70.9921147013145
 20
119.874666766436
 30
0.0
 11
70.309016994375
 21
119.048943483705
 31
0.0
 12
70.4257792915651
 22
119.095172947534
 32
0.0
 13
70.4257792915651
 23
119.095172947534
 33
0.0
  0
SOLID
  5
2F0
100
AcDbEntity
  8
画層0
100
AcDbTrace
 10
70.9921147013145
 20
119.874666766436
 30
0.0
 11
70.4257792915651
 21
119.095172947534
 31
0.0
 12
70.535826794979
 22
119.155672074498
 32
0.0
 13
70.535826794979
 23
119.155672074498
 33
0.0
  0
SOLID
  5
2F1
100
AcDbEntity
  8
画層0
100
AcDbTrace
 10
70.9921147013145
 20
119.874666766436
 30
0.0
 11
70.535826794979
 21
119.155672074498
 31
0.0
 12
70.6374239897487
 22
119.229486757224
 32
0.0
 13
70.6374239897487
 23
119.229486757224
 33
0.0
  0
SOLID
  5
2F2
100
AcDbEntity
  8
画層0
100
AcDbTrace
 10
70.9921147013145
 20
119.874666766436
 30
0.0
 11
70.6374239897487
 21
119.229486757224
 31
0.0
 12
70.7289686274214
 22
119.315452894071
 32
0.0
 13
70.7289686274214
 23
119.315452894071
 33
0.0
  0
SOLID
  5
2F3
100
AcDbEntity
  8
画層0
100
AcDbTrace
 10
70.9921147013145
 20
119.874666766436
 30
0.0
 11
70.7289686274214
 21
119.315452894071
 31
0.0
 12
70.8090169943749
 22
119.412214747708
 32
0.0
 13
70.8090169943749
 23
119.412214747708
 33
0.0
  0
SOLID
  5
2F4
100
AcDbEntity
  8
画層0
100
AcDbTrace
 10
70.9921147013145
 20
119.874666766436
 30
0.0
 11
70.8090169943749
 21
119.412214747708
 31
0.0
 12
70.8763066800439
 22
119.518246325898
 32
0.0
 13
70.8763066800439
 23
119.518246325898
 33
0.0
  0
SOLID
  5
2F5
100
AcDbEntity
  8
画層0
100
AcDbTrace
 10
70.9921147013145
 20
119.874666766436
 30
0.0
 11
70.8763066800439
 21
119.518246325898
 31
0.0
 12
70.9297764858883
 22
119.631875447315
 32
0.0
 13
70.9297764858883
 23
119.631875447315
 33
0.0
  0
SOLID
  5
2F6
100
AcDbEntity
  8
画層0
100
AcDbTrace
 10
70.9921147013145
 20
119.874666766436
 30
0.0
 11
70.9297764858883
 21
119.631875447315
 31
0.0
 12
70.9685831611286
 22
119.751310112835
 32
0.0
 13
70.9685831611286
 23
119.751310112835
 33
0.0
  0
CIRCLE
  5
2F7
100
AcDbEntity
  8
画層0
100
AcDbCircle
  6
CONTINUOUS
 10
80
 20
60
 40
1
  0
SOLID
  5
2F8
100
AcDbEntity
  8
画層0
100
AcDbTrace
 10
80.9921147013145
 20
59.8746667664357
 30
0.0
 11
81
 21
60
 31
0.0
 12
80.9921147013145
 22
60.1253332335643
 32
0.0
 13
80.9921147013145
 23
60.1253332335643
 33
0.0
  0
SOLID
  5
2F9
100
AcDbEntity
  8
画層0
100
AcDbTrace
 10
80.9921147013145
 20
59.8746667664357
 30
0.0
 11
80.9921147013145
 21
60.1253332335643
 31
0.0
 12
80.9685831611286
 22
60.2486898871649
 32
0.0
 13
80.9685831611286
 23
60.2486898871649
 33
0.0
  0
SOLID
  5
2FA
100
AcDbEntity
  8
画層0
100
AcDbTrace
 10
80.9921147013145
 20
59.8746667664357
 30
0.0
 11
80.9685831611286
 21
60.2486898871649
 31
0.0
 12
80.9297764858883
 22
60.3681245526847
 32
0.0
 13
80.9297764858883
 23
60.3681245526847
 33
0.0
  0
SOLID
  5
2FB
100
AcDbEntity
  8
画層0
100
AcDbTrace
 10
80.9921147013145
 20
59.8746667664357
 30
0.0
 11
80.9297764858883
 21
60.3681245526847
 31
0.0
 12
80.8763066800439
 22
60.4817536741017
 32
0.0
 13
80.8763066800439
 23
60.4817536741017
 33
0.0
  0
SOLID
  5
2FC
100
AcDbEntity
  8
画層0
100
AcDbTrace
 10
80.9921147013145
 20
59.8746667664357
 30
0.0
 11
80.8763066800439
 21
60.4817536741017
 31
0.0
 12
80.8090169943749
 22
60.5877852522925
 32
0.0
 13
80.8090169943749
 23
60.5877852522925
 33
0.0
  0
SOLID
  5
2FD
100
AcDbEntity
  8
画層0
100
AcDbTrace
 10
80.9921147013145
 20
59.8746667664357
 30
0.0
 11
80.8090169943749
 21
60.5877852522925
 31
0.0
 12
80.7289686274214
 22
60.6845471059287
 32
0.0
 13
80.7289686274214
 23
60.6845471059287
 33
0.0
  0
SOLID
  5
2FE
100
AcDbEntity
  8
画層0
100
AcDbTrace
 10
80.9921147013145
 20
59.8746667664357
 30
0.0
 11
80.7289686274214
 21
60.6845471059287
 31
0.0
 12
80.6374239897487
 22
60.7705132427758
 32
0.0
 13
80.6374239897487
 23
60.7705132427758
 33
0.0
  0
SOLID
  5
2FF
100
AcDbEntity
  8
画層0
100
AcDbTrace
 10
80.9921147013145
 20
59.8746667664357
 30
0.0
 11
80.6374239897487
 21
60.7705132427758
 31
0.0
 12
80.535826794979
 22
60.844327925502
 32
0.0
 13
80.535826794979
 23
60.844327925502
 33
0.0
  0
SOLID
  5
300
100
AcDbEntity
  8
画層0
100
AcDbTrace
 10
80.9921147013145
 20
59.8746667664357
 30
0.0
 11
80.535826794979
 21
60.844327925502
 31
0.0
 12
80.4257792915651
 22
60.904827052466
 32
0.0
 13
80.4257792915651
 23
60.904827052466
 33
0.0
  0
SOLID
  5
301
100
AcDbEntity
  8
画層0
100
AcDbTrace
 10
80.9921147013145
 20
59.8746667664357
 30
0.0
 11
80.4257792915651
 21
60.904827052466
 31
0.0
 12
80.3090169943749
 22
60.9510565162952
 32
0.0
 13
80.3090169943749
 23
60.9510565162952
 33
0.0
  0
SOLID
  5
302
100
AcDbEntity
  8
画層0
100
AcDbTrace
 10
80.9921147013145
 20
59.8746667664357
 30
0.0
 11
80.3090169943749
 21
60.9510565162952
 31
0.0
 12
80.1873813145857
 22
60.9822872507287
 32
0.0
 13
80.1873813145857
 23
60.9822872507287
 33
0.0
  0
SOLID
  5
303
100
AcDbEntity
  8
画層0
100
AcDbTrace
 10
80.9921147013145
 20
59.8746667664357
 30
0.0
 11
80.1873813145857
 21
60.9822872507287
 31
0.0
 12
80.0627905195293
 22
60.9980267284283
 32
0.0
 13
80.0627905195293
 23
60.9980267284283
 33
0.0
  0
SOLID
  5
304
100
AcDbEntity
  8
画層0
100
AcDbTrace
 10
80.9921147013145
 20
59.8746667664357
 30
0.0
 11
80.0627905195293
 21
60.9980267284283
 31
0.0
 12
79.9372094804707
 22
60.9980267284283
 32
0.0
 13
79.9372094804707
 23
60.9980267284283
 33
0.0
  0
SOLID
  5
305
100
AcDbEntity
  8
画層0
100
AcDbTrace
 10
80.9921147013145
 20
59.8746667664357
 30
0.0
 11
79.9372094804707
 21
60.9980267284283
 31
0.0
 12
79.8126186854143
 22
60.9822872507287
 32
0.0
 13
79.8126186854143
 23
60.9822872507287
 33
0.0
  0
SOLID
  5
306
100
AcDbEntity
  8
画層0
100
AcDbTrace
 10
80.9921147013145
 20
59.8746667664357
 30
0.0
 11
79.8126186854143
 21
60.9822872507287
 31
0.0
 12
79.6909830056251
 22
60.9510565162952
 32
0.0
 13
79.6909830056251
 23
60.9510565162952
 33
0.0
  0
SOLID
  5
307
100
AcDbEntity
  8
画層0
100
AcDbTrace
 10
80.9921147013145
 20
59.8746667664357
 30
0.0
 11
79.6909830056251
 21
60.9510565162952
 31
0.0
 12
79.5742207084349
 22
60.904827052466
 32
0.0
 13
79.5742207084349
 23
60.904827052466
 33
0.0
  0
SOLID
  5
308
100
AcDbEntity
  8
画層0
100
AcDbTrace
 10
80.9921147013145
 20
59.8746667664357
 30
0.0
 11
79.5742207084349
 21
60.904827052466
 31
0.0
 12
79.464173205021
 22
60.844327925502
 32
0.0
 13
79.464173205021
 23
60.844327925502
 33
0.0
  0
SOLID
  5
309
100
AcDbEntity
  8
画層0
100
AcDbTrace
 10
80.9921147013145
 20
59.8746667664357
 30
0.0
 11
79.464173205021
 21
60.844327925502
 31
0.0
 12
79.3625760102513
 22
60.7705132427758
 32
0.0
 13
79.3625760102513
 23
60.7705132427758
 33
0.0
  0
SOLID
  5
30A
100
AcDbEntity
  8
画層0
100
AcDbTrace
 10
80.9921147013145
 20
59.8746667664357
 30
0.0
 11
79.3625760102513
 21
60.7705132427758
 31
0.0
 12
79.2710313725786
 22
60.6845471059287
 32
0.0
 13
79.2710313725786
 23
60.6845471059287
 33
0.0
  0
SOLID
  5
30B
100
AcDbEntity
  8
画層0
100
AcDbTrace
 10
80.9921147013145
 20
59.8746667664357
 30
0.0
 11
79.2710313725786
 21
60.6845471059287
 31
0.0
 12
79.1909830056251
 22
60.5877852522925
 32
0.0
 13
79.1909830056251
 23
60.5877852522925
 33
0.0
  0
SOLID
  5
30C
100
AcDbEntity
  8
画層0
100
AcDbTrace
 10
80.9921147013145
 20
59.8746667664357
 30
0.0
 11
79.1909830056251
 21
60.5877852522925
 31
0.0
 12
79.1236933199561
 22
60.4817536741017
 32
0.0
 13
79.1236933199561
 23
60.4817536741017
 33
0.0
  0
SOLID
  5
30D
100
AcDbEntity
  8
画層0
100
AcDbTrace
 10
80.9921147013145
 20
59.8746667664357
 30
0.0
 11
79.1236933199561
 21
60.4817536741017
 31
0.0
 12
79.0702235141117
 22
60.3681245526847
 32
0.0
 13
79.0702235141117
 23
60.3681245526847
 33
0.0
  0
SOLID
  5
30E
100
AcDbEntity
  8
画層0
100
AcDbTrace
 10
80.9921147013145
 20
59.8746667664357
 30
0.0
 11
79.0702235141117
 21
60.3681245526847
 31
0.0
 12
79.0314168388714
 22
60.2486898871649
 32
0.0
 13
79.0314168388714
 23
60.2486898871649
 33
0.0
  0
SOLID
  5
30F
100
AcDbEntity
  8
画層0
100
AcDbTrace
 10
80.9921147013145
 20
59.8746667664357
 30
0.0
 11
79.0314168388714
 21
60.2486898871649
 31
0.0
 12
79.0078852986855
 22
60.1253332335643
 32
0.0
 13
79.0078852986855
 23
60.1253332335643
 33
0.0
  0
SOLID
  5
310
100
AcDbEntity
  8
画層0
100
AcDbTrace
 10
80.9921147013145
 20
59.8746667664357
 30
0.0
 11
79.0078852986855
 21
60.1253332335643
 31
0.0
 12
79
 22
60
 32
0.0
 13
79
 23
60
 33
0.0
  0
SOLID
  5
311
100
AcDbEntity
  8
画層0
100
AcDbTrace
 10
80.9921147013145
 20
59.8746667664357
 30
0.0
 11
79
 21
60
 31
0.0
 12
79.0078852986855
 22
59.8746667664357
 32
0.0
 13
79.0078852986855
 23
59.8746667664357
 33
0.0
  0
SOLID
  5
312
100
AcDbEntity
  8
画層0
100
AcDbTrace
 10
80.9921147013145
 20
59.8746667664357
 30
0.0
 11
79.0078852986855
 21
59.8746667664357
 31
0.0
 12
79.0314168388714
 22
59.7513101128351
 32
0.0
 13
79.0314168388714
 23
59.7513101128351
 33
0.0
  0
SOLID
  5
313
100
AcDbEntity
  8
画層0
100
AcDbTrace
 10
80.9921147013145
 20
59.8746667664357
 30
0.0
 11
79.0314168388714
 21
59.7513101128351
 31
0.0
 12
79.0702235141117
 22
59.6318754473153
 32
0.0
 13
79.0702235141117
 23
59.6318754473153
 33
0.0
  0
SOLID
  5
314
100
AcDbEntity
  8
画層0
100
AcDbTrace
 10
80.9921147013145
 20
59.8746667664357
 30
0.0
 11
79.0702235141117
 21
59.6318754473153
 31
0.0
 12
79.1236933199561
 22
59.5182463258983
 32
0.0
 13
79.1236933199561
 23
59.5182463258983
 33
0.0
  0
SOLID
  5
315
100
AcDbEntity
  8
画層0
100
AcDbTrace
 10
80.9921147013145
 20
59.8746667664357
 30
0.0
 11
79.1236933199561
 21
59.5182463258983
 31
0.0
 12
79.1909830056251
 22
59.4122147477075
 32
0.0
 13
79.1909830056251
 23
59.4122147477075
 33
0.0
  0
SOLID
  5
316
100
AcDbEntity
  8
画層0
100
AcDbTrace
 10
80.9921147013145
 20
59.8746667664357
 30
0.0
 11
79.1909830056251
 21
59.4122147477075
 31
0.0
 12
79.2710313725786
 22
59.3154528940713
 32
0.0
 13
79.2710313725786
 23
59.3154528940713
 33
0.0
  0
SOLID
  5
317
100
AcDbEntity
  8
画層0
100
AcDbTrace
 10
80.9921147013145
 20
59.8746667664357
 30
0.0
 11
79.2710313725786
 21
59.3154528940713
 31
0.0
 12
79.3625760102513
 22
59.2294867572242
 32
0.0
 13
79.3625760102513
 23
59.2294867572242
 33
0.0
  0
SOLID
  5
318
100
AcDbEntity
  8
画層0
100
AcDbTrace
 10
80.9921147013145
 20
59.8746667664357
 30
0.0
 11
79.3625760102513
 21
59.2294867572242
 31
0.0
 12
79.464173205021
 22
59.155672074498
 32
0.0
 13
79.464173205021
 23
59.155672074498
 33
0.0
  0
SOLID
  5
319
100
AcDbEntity
  8
画層0
100
AcDbTrace
 10
80.9921147013145
 20
59.8746667664357
 30
0.0
 11
79.464173205021
 21
59.155672074498
 31
0.0
 12
79.5742207084349
 22
59.095172947534
 32
0.0
 13
79.5742207084349
 23
59.095172947534
 33
0.0
  0
SOLID
  5
31A
100
AcDbEntity
  8
画層0
100
AcDbTrace
 10
80.9921147013145
 20
59.8746667664357
 30
0.0
 11
79.5742207084349
 21
59.095172947534
 31
0.0
 12
79.6909830056251
 22
59.0489434837048
 32
0.0
 13
79.6909830056251
 23
59.0489434837048
 33
0.0
  0
SOLID
  5
31B
100
AcDbEntity
  8
画層0
100
AcDbTrace
 10
80.9921147013145
 20
59.8746667664357
 30
0.0
 11
79.6909830056251
 21
59.0489434837048
 31
0.0
 12
79.8126186854143
 22
59.0177127492713
 32
0.0
 13
79.8126186854143
 23
59.0177127492713
 33
0.0
  0
SOLID
  5
31C
100
AcDbEntity
  8
画層0
100
AcDbTrace
 10
80.9921147013145
 20
59.8746667664357
 30
0.0
 11
79.8126186854143
 21
59.0177127492713
 31
0.0
 12
79.9372094804707
 22
59.0019732715717
 32
0.0
 13
79.9372094804707
 23
59.0019732715717
 33
0.0
  0
SOLID
  5
31D
100
AcDbEntity
  8
画層0
100
AcDbTrace
 10
80.9921147013145
 20
59.8746667664357
 30
0.0
 11
79.9372094804707
 21
59.0019732715717
 31
0.0
 12
80.0627905195293
 22
59.0019732715717
 32
0.0
 13
80.0627905195293
 23
59.0019732715717
 33
0.0
  0
SOLID
  5
31E
100
AcDbEntity
  8
画層0
100
AcDbTrace
 10
80.9921147013145
 20
59.8746667664357
 30
0.0
 11
80.0627905195293
 21
59.0019732715717
 31
0.0
 12
80.1873813145857
 22
59.0177127492713
 32
0.0
 13
80.1873813145857
 23
59.0177127492713
 33
0.0
  0
SOLID
  5
31F
100
AcDbEntity
  8
画層0
100
AcDbTrace
 10
80.9921147013145
 20
59.8746667664357
 30
0.0
 11
80.1873813145857
 21
59.0177127492713
 31
0.0
 12
80.309016994375
 22
59.0489434837048
 32
0.0
 13
80.309016994375
 23
59.0489434837048
 33
0.0
  0
SOLID
  5
320
100
AcDbEntity
  8
画層0
100
AcDbTrace
 10
80.9921147013145
 20
59.8746667664357
 30
0.0
 11
80.309016994375
 21
59.0489434837048
 31
0.0
 12
80.4257792915651
 22
59.095172947534
 32
0.0
 13
80.4257792915651
 23
59.095172947534
 33
0.0
  0
SOLID
  5
321
100
AcDbEntity
  8
画層0
100
AcDbTrace
 10
80.9921147013145
 20
59.8746667664357
 30
0.0
 11
80.4257792915651
 21
59.095172947534
 31
0.0
 12
80.535826794979
 22
59.155672074498
 32
0.0
 13
80.535826794979
 23
59.155672074498
 33
0.0
  0
SOLID
  5
322
100
AcDbEntity
  8
画層0
100
AcDbTrace
 10
80.9921147013145
 20
59.8746667664357
 30
0.0
 11
80.535826794979
 21
59.155672074498
 31
0.0
 12
80.6374239897487
 22
59.2294867572242
 32
0.0
 13
80.6374239897487
 23
59.2294867572242
 33
0.0
  0
SOLID
  5
323
100
AcDbEntity
  8
画層0
100
AcDbTrace
 10
80.9921147013145
 20
59.8746667664357
 30
0.0
 11
80.6374239897487
 21
59.2294867572242
 31
0.0
 12
80.7289686274214
 22
59.3154528940713
 32
0.0
 13
80.7289686274214
 23
59.3154528940713
 33
0.0
  0
SOLID
  5
324
100
AcDbEntity
  8
画層0
100
AcDbTrace
 10
80.9921147013145
 20
59.8746667664357
 30
0.0
 11
80.7289686274214
 21
59.3154528940713
 31
0.0
 12
80.8090169943749
 22
59.4122147477075
 32
0.0
 13
80.8090169943749
 23
59.4122147477075
 33
0.0
  0
SOLID
  5
325
100
AcDbEntity
  8
画層0
100
AcDbTrace
 10
80.9921147013145
 20
59.8746667664357
 30
0.0
 11
80.8090169943749
 21
59.4122147477075
 31
0.0
 12
80.8763066800439
 22
59.5182463258983
 32
0.0
 13
80.8763066800439
 23
59.5182463258983
 33
0.0
  0
SOLID
  5
326
100
AcDbEntity
  8
画層0
100
AcDbTrace
 10
80.9921147013145
 20
59.8746667664357
 30
0.0
 11
80.8763066800439
 21
59.5182463258983
 31
0.0
 12
80.9297764858883
 22
59.6318754473153
 32
0.0
 13
80.9297764858883
 23
59.6318754473153
 33
0.0
  0
SOLID
  5
327
100
AcDbEntity
  8
画層0
100
AcDbTrace
 10
80.9921147013145
 20
59.8746667664357
 30
0.0
 11
80.9297764858883
 21
59.6318754473153
 31
0.0
 12
80.9685831611286
 22
59.7513101128351
 32
0.0
 13
80.9685831611286
 23
59.7513101128351
 33
0.0
  0
CIRCLE
  5
328
100
AcDbEntity
  8
画層0
100
AcDbCircle
  6
CONTINUOUS
 10
260
 20
183
 40
0.5
  0
LINE
  5
329
100
AcDbEntity
  8
画層0
100
AcDbLine
  6
CONTINUOUS
 10
260
 20
183.5
 11
260
 21
187.5
  0
LINE
  5
32A
100
AcDbEntity
  8
画層0
100
AcDbLine
  6
CONTINUOUS
 10
110
 20
127.5
 11
110
 21
130
  0
CIRCLE
  5
32B
100
AcDbEntity
  8
画層0
100
AcDbCircle
  6
CONTINUOUS
 10
62
 20
120
 40
2
  0
LINE
  5
32C
100
AcDbEntity
  8
画層0
100
AcDbLine
  6
CONTINUOUS
 10
70
 20
120
 11
64
 21
120
  0
TEXT
  5
32D
100
AcDbEntity
  8
画層0
 62
7
100
AcDbText
  6
CONTINUOUS
 62
7
 10
111.5
 20
10
 40
4
  1
http://www.k2.dion.ne.jp/~yht/rss/rss.xml
  7
Font_0
 11
111.5
 21
14
100
AcDbText
 73
3
  0
TEXT
  5
32E
100
AcDbEntity
  8
画層0
 62
7
100
AcDbText
  6
CONTINUOUS
 62
7
 10
111.1947753289
 20
13.7791013156003
 40
4
  1
CMOS Transmission Gate
  7
Font_0
 11
111.1947753289
 21
17.7791013156003
100
AcDbText
 73
3
  0
ENDSEC
  0
SECTION
  2
OBJECTS
  0
DICTIONARY
  5
32F
100
AcDbDictionary
  3
ACAD_GROUP
350
330
  3
ACAD_MLINESTYLE
350
331
  0
DICTIONARY
  5
330
102
{ACAD_REACTORS
330
32F
102
}
100
AcDbDictionary
  0
DICTIONARY
  5
331
102
{ACAD_REACTORS
330
32F
102
}
100
AcDbDictionary
  3
STANDARD
350
332
  0
MLINESTYLE
  5
332
102
{ACAD_REACTORS
330
331
102
}
100
AcDbMlineStyle
  2
Standard
 70
     0
  3

 62
     0
 51
90.0
 52
90.0
 71
     2
 49
0.5
 62
   256
  6
ByLayer
 49
-0.5
 62
   256
  6
ByLayer
  0
ENDSEC
  0
EOF
