999
Outputted By AR_CAD Ver.1.5.4a
  0
SECTION
  2
HEADER
  9
$ACADVER
  1
AC1014
  9
$DWGCODEPAGE
  3
ANSI_932
  9
$EXTMIN
 10
0
 20
0
  9
$EXTMAX
 10
297
 20
210
  9
$INSBASE
 10
0.0
 20
0.0
 30
0.0
  9
$HANDLING
 70
     1
  9
$HANDSEED
  5
34C
  9
$LTSCALE
 40
1
  0
ENDSEC
  0
SECTION
  2
TABLES
  0
TABLE
  2
VPORT
  5
1
100
AcDbSymbolTable
 70
     1
  0
VPORT
  5
30
100
AcDbSymbolTableRecord
100
AcDbViewportTableRecord
  2
*ACTIVE
 70
     0
 10
0.0
 20
0.0
 11
1.0
 21
1.0
 12
210.0
 22
148.5
 13
0.0
 23
0.0
 14
10.0
 24
10.0
 15
10.0
 25
10.0
 16
0.0
 26
0.0
 36
1.0
 17
0.0
 27
0.0
 37
0.0
 40
302.94
 41
1.333333
 42
50.0
 43
0.0
 44
0.0
 50
0.0
 51
0.0
 71
     0
 72
   100
 73
     1
 74
     1
 75
     0
 76
     0
 77
     0
 78
     0
  0
ENDTAB
  0
TABLE
  2
LTYPE
  5
2
100
AcDbSymbolTable
 70
     7
  0
LTYPE
  5
31
100
AcDbSymbolTableRecord
100
AcDbLinetypeTableRecord
  2
BYBLOCK
 70
    64
 3

 72
    65
 73
    0
 40
    0
  0
LTYPE
  5
32
100
AcDbSymbolTableRecord
100
AcDbLinetypeTableRecord
  2
BYLAYER
 70
    64
 3

 72
    65
 73
    0
 40
    0
  0
LTYPE
  5
33
100
AcDbSymbolTableRecord
100
AcDbLinetypeTableRecord
  2
CONTINUOUS
 70
    64
 3
CONTINUOUS
 72
    65
 73
    0
 40
    0
  0
LTYPE
  5
34
100
AcDbSymbolTableRecord
100
AcDbLinetypeTableRecord
  2
DASHED
 70
    64
 3

 72
    65
 73
    2
 40
    3.5
 49
    2.917
 74
    0
 49
    -0.583
 74
    0
  0
LTYPE
  5
35
100
AcDbSymbolTableRecord
100
AcDbLinetypeTableRecord
  2
DOT
 70
    64
 3

 72
    65
 73
    2
 40
    0.5
 49
    0.25
 74
    0
 49
    -0.25
 74
    0
  0
LTYPE
  5
36
100
AcDbSymbolTableRecord
100
AcDbLinetypeTableRecord
  2
DASHDOT
 70
    64
 3

 72
    65
 73
    4
 40
    3.5
 49
    1.84147386461011
 74
    0
 49
    -0.552842045129963
 74
    0
 49
    0.552842045129963
 74
    0
 49
    -0.552842045129963
 74
    0
  0
LTYPE
  5
37
100
AcDbSymbolTableRecord
100
AcDbLinetypeTableRecord
  2
DIVIDE
 70
    64
 3

 72
    65
 73
    6
 40
    3.5
 49
    1.4
 74
    0
 49
    -0.42
 74
    0
 49
    0.42
 74
    0
 49
    -0.42
 74
    0
 49
    0.42
 74
    0
 49
    -0.42
 74
    0
  0
LTYPE
  5
38
100
AcDbSymbolTableRecord
100
AcDbLinetypeTableRecord
  2
HIDDEN
 70
    64
 3

 72
    65
 73
    2
 40
    4
 49
    2
 74
    0
 49
    -2
 74
    0
  0
ENDTAB
  0
TABLE
  2
LAYER
  5
3
100
AcDbSymbolTable
 70
   257
  0
LAYER
  5
39
100
AcDbSymbolTableRecord
100
AcDbLayerTableRecord
  2
画層0
 70
    0
 62
7
  6
CONTINUOUS
  0
LAYER
  5
3A
100
AcDbSymbolTableRecord
100
AcDbLayerTableRecord
  2
画層1
 70
    0
 62
3
  6
CONTINUOUS
  0
LAYER
  5
3B
100
AcDbSymbolTableRecord
100
AcDbLayerTableRecord
  2
画層2
 70
    0
 62
9
  6
CONTINUOUS
  0
LAYER
  5
3C
100
AcDbSymbolTableRecord
100
AcDbLayerTableRecord
  2
画層3
 70
    0
 62
7
  6
CONTINUOUS
  0
LAYER
  5
3D
100
AcDbSymbolTableRecord
100
AcDbLayerTableRecord
  2
画層4
 70
    0
 62
6
  6
CONTINUOUS
  0
LAYER
  5
3E
100
AcDbSymbolTableRecord
100
AcDbLayerTableRecord
  2
画層5
 70
    0
 62
1
  6
CONTINUOUS
  0
LAYER
  5
3F
100
AcDbSymbolTableRecord
100
AcDbLayerTableRecord
  2
画層6
 70
    0
 62
7
  6
CONTINUOUS
  0
LAYER
  5
40
100
AcDbSymbolTableRecord
100
AcDbLayerTableRecord
  2
画層7
 70
    0
 62
51
  6
CONTINUOUS
  0
LAYER
  5
41
100
AcDbSymbolTableRecord
100
AcDbLayerTableRecord
  2
画層8
 70
    0
 62
61
  6
CONTINUOUS
  0
LAYER
  5
42
100
AcDbSymbolTableRecord
100
AcDbLayerTableRecord
  2
画層9
 70
    0
 62
111
  6
CONTINUOUS
  0
LAYER
  5
43
100
AcDbSymbolTableRecord
100
AcDbLayerTableRecord
  2
画層10
 70
    0
 62
91
  6
CONTINUOUS
  0
LAYER
  5
44
100
AcDbSymbolTableRecord
100
AcDbLayerTableRecord
  2
画層11
 70
    0
 62
131
  6
CONTINUOUS
  0
LAYER
  5
45
100
AcDbSymbolTableRecord
100
AcDbLayerTableRecord
  2
画層12
 70
    0
 62
161
  6
CONTINUOUS
  0
LAYER
  5
46
100
AcDbSymbolTableRecord
100
AcDbLayerTableRecord
  2
画層13
 70
    0
 62
5
  6
CONTINUOUS
  0
LAYER
  5
47
100
AcDbSymbolTableRecord
100
AcDbLayerTableRecord
  2
画層14
 70
    0
 62
7
  6
CONTINUOUS
  0
LAYER
  5
48
100
AcDbSymbolTableRecord
100
AcDbLayerTableRecord
  2
画層15
 70
    0
 62
11
  6
CONTINUOUS
  0
LAYER
  5
49
100
AcDbSymbolTableRecord
100
AcDbLayerTableRecord
  2
画層16
 70
    0
 62
7
  6
CONTINUOUS
  0
LAYER
  5
4A
100
AcDbSymbolTableRecord
100
AcDbLayerTableRecord
  2
画層17
 70
    0
 62
70
  6
CONTINUOUS
  0
LAYER
  5
4B
100
AcDbSymbolTableRecord
100
AcDbLayerTableRecord
  2
画層18
 70
    0
 62
211
  6
CONTINUOUS
  0
LAYER
  5
4C
100
AcDbSymbolTableRecord
100
AcDbLayerTableRecord
  2
画層19
 70
    0
 62
137
  6
CONTINUOUS
  0
LAYER
  5
4D
100
AcDbSymbolTableRecord
100
AcDbLayerTableRecord
  2
画層20
 70
    0
 62
4
  6
CONTINUOUS
  0
LAYER
  5
4E
100
AcDbSymbolTableRecord
100
AcDbLayerTableRecord
  2
画層21
 70
    0
 62
131
  6
CONTINUOUS
  0
LAYER
  5
4F
100
AcDbSymbolTableRecord
100
AcDbLayerTableRecord
  2
画層22
 70
    0
 62
4
  6
CONTINUOUS
  0
LAYER
  5
50
100
AcDbSymbolTableRecord
100
AcDbLayerTableRecord
  2
画層23
 70
    0
 62
4
  6
CONTINUOUS
  0
LAYER
  5
51
100
AcDbSymbolTableRecord
100
AcDbLayerTableRecord
  2
画層24
 70
    0
 62
7
  6
CONTINUOUS
  0
LAYER
  5
52
100
AcDbSymbolTableRecord
100
AcDbLayerTableRecord
  2
画層25
 70
    0
 62
7
  6
CONTINUOUS
  0
LAYER
  5
53
100
AcDbSymbolTableRecord
100
AcDbLayerTableRecord
  2
画層26
 70
    0
 62
7
  6
CONTINUOUS
  0
LAYER
  5
54
100
AcDbSymbolTableRecord
100
AcDbLayerTableRecord
  2
画層27
 70
    0
 62
7
  6
CONTINUOUS
  0
LAYER
  5
55
100
AcDbSymbolTableRecord
100
AcDbLayerTableRecord
  2
画層28
 70
    0
 62
7
  6
CONTINUOUS
  0
LAYER
  5
56
100
AcDbSymbolTableRecord
100
AcDbLayerTableRecord
  2
画層29
 70
    0
 62
7
  6
CONTINUOUS
  0
LAYER
  5
57
100
AcDbSymbolTableRecord
100
AcDbLayerTableRecord
  2
画層30
 70
    0
 62
7
  6
CONTINUOUS
  0
LAYER
  5
58
100
AcDbSymbolTableRecord
100
AcDbLayerTableRecord
  2
画層31
 70
    0
 62
7
  6
CONTINUOUS
  0
LAYER
  5
59
100
AcDbSymbolTableRecord
100
AcDbLayerTableRecord
  2
画層32
 70
    0
 62
7
  6
CONTINUOUS
  0
LAYER
  5
5A
100
AcDbSymbolTableRecord
100
AcDbLayerTableRecord
  2
画層33
 70
    0
 62
7
  6
CONTINUOUS
  0
LAYER
  5
5B
100
AcDbSymbolTableRecord
100
AcDbLayerTableRecord
  2
画層34
 70
    0
 62
7
  6
CONTINUOUS
  0
LAYER
  5
5C
100
AcDbSymbolTableRecord
100
AcDbLayerTableRecord
  2
画層35
 70
    0
 62
7
  6
CONTINUOUS
  0
LAYER
  5
5D
100
AcDbSymbolTableRecord
100
AcDbLayerTableRecord
  2
画層36
 70
    0
 62
7
  6
CONTINUOUS
  0
LAYER
  5
5E
100
AcDbSymbolTableRecord
100
AcDbLayerTableRecord
  2
画層37
 70
    0
 62
7
  6
CONTINUOUS
  0
LAYER
  5
5F
100
AcDbSymbolTableRecord
100
AcDbLayerTableRecord
  2
画層38
 70
    0
 62
7
  6
CONTINUOUS
  0
LAYER
  5
60
100
AcDbSymbolTableRecord
100
AcDbLayerTableRecord
  2
画層39
 70
    0
 62
7
  6
CONTINUOUS
  0
LAYER
  5
61
100
AcDbSymbolTableRecord
100
AcDbLayerTableRecord
  2
画層40
 70
    0
 62
7
  6
CONTINUOUS
  0
LAYER
  5
62
100
AcDbSymbolTableRecord
100
AcDbLayerTableRecord
  2
画層41
 70
    0
 62
7
  6
CONTINUOUS
  0
LAYER
  5
63
100
AcDbSymbolTableRecord
100
AcDbLayerTableRecord
  2
画層42
 70
    0
 62
7
  6
CONTINUOUS
  0
LAYER
  5
64
100
AcDbSymbolTableRecord
100
AcDbLayerTableRecord
  2
画層43
 70
    0
 62
7
  6
CONTINUOUS
  0
LAYER
  5
65
100
AcDbSymbolTableRecord
100
AcDbLayerTableRecord
  2
画層44
 70
    0
 62
7
  6
CONTINUOUS
  0
LAYER
  5
66
100
AcDbSymbolTableRecord
100
AcDbLayerTableRecord
  2
画層45
 70
    0
 62
7
  6
CONTINUOUS
  0
LAYER
  5
67
100
AcDbSymbolTableRecord
100
AcDbLayerTableRecord
  2
画層46
 70
    0
 62
7
  6
CONTINUOUS
  0
LAYER
  5
68
100
AcDbSymbolTableRecord
100
AcDbLayerTableRecord
  2
画層47
 70
    0
 62
7
  6
CONTINUOUS
  0
LAYER
  5
69
100
AcDbSymbolTableRecord
100
AcDbLayerTableRecord
  2
画層48
 70
    0
 62
7
  6
CONTINUOUS
  0
LAYER
  5
6A
100
AcDbSymbolTableRecord
100
AcDbLayerTableRecord
  2
画層49
 70
    0
 62
7
  6
CONTINUOUS
  0
LAYER
  5
6B
100
AcDbSymbolTableRecord
100
AcDbLayerTableRecord
  2
画層50
 70
    0
 62
7
  6
CONTINUOUS
  0
LAYER
  5
6C
100
AcDbSymbolTableRecord
100
AcDbLayerTableRecord
  2
画層51
 70
    0
 62
7
  6
CONTINUOUS
  0
LAYER
  5
6D
100
AcDbSymbolTableRecord
100
AcDbLayerTableRecord
  2
画層52
 70
    0
 62
7
  6
CONTINUOUS
  0
LAYER
  5
6E
100
AcDbSymbolTableRecord
100
AcDbLayerTableRecord
  2
画層53
 70
    0
 62
7
  6
CONTINUOUS
  0
LAYER
  5
6F
100
AcDbSymbolTableRecord
100
AcDbLayerTableRecord
  2
画層54
 70
    0
 62
7
  6
CONTINUOUS
  0
LAYER
  5
70
100
AcDbSymbolTableRecord
100
AcDbLayerTableRecord
  2
画層55
 70
    0
 62
7
  6
CONTINUOUS
  0
LAYER
  5
71
100
AcDbSymbolTableRecord
100
AcDbLayerTableRecord
  2
画層56
 70
    0
 62
7
  6
CONTINUOUS
  0
LAYER
  5
72
100
AcDbSymbolTableRecord
100
AcDbLayerTableRecord
  2
画層57
 70
    0
 62
7
  6
CONTINUOUS
  0
LAYER
  5
73
100
AcDbSymbolTableRecord
100
AcDbLayerTableRecord
  2
画層58
 70
    0
 62
7
  6
CONTINUOUS
  0
LAYER
  5
74
100
AcDbSymbolTableRecord
100
AcDbLayerTableRecord
  2
画層59
 70
    0
 62
7
  6
CONTINUOUS
  0
LAYER
  5
75
100
AcDbSymbolTableRecord
100
AcDbLayerTableRecord
  2
画層60
 70
    0
 62
7
  6
CONTINUOUS
  0
LAYER
  5
76
100
AcDbSymbolTableRecord
100
AcDbLayerTableRecord
  2
画層61
 70
    0
 62
7
  6
CONTINUOUS
  0
LAYER
  5
77
100
AcDbSymbolTableRecord
100
AcDbLayerTableRecord
  2
画層62
 70
    0
 62
7
  6
CONTINUOUS
  0
LAYER
  5
78
100
AcDbSymbolTableRecord
100
AcDbLayerTableRecord
  2
画層63
 70
    0
 62
7
  6
CONTINUOUS
  0
LAYER
  5
79
100
AcDbSymbolTableRecord
100
AcDbLayerTableRecord
  2
画層64
 70
    0
 62
7
  6
CONTINUOUS
  0
LAYER
  5
7A
100
AcDbSymbolTableRecord
100
AcDbLayerTableRecord
  2
画層65
 70
    0
 62
7
  6
CONTINUOUS
  0
LAYER
  5
7B
100
AcDbSymbolTableRecord
100
AcDbLayerTableRecord
  2
画層66
 70
    0
 62
7
  6
CONTINUOUS
  0
LAYER
  5
7C
100
AcDbSymbolTableRecord
100
AcDbLayerTableRecord
  2
画層67
 70
    0
 62
7
  6
CONTINUOUS
  0
LAYER
  5
7D
100
AcDbSymbolTableRecord
100
AcDbLayerTableRecord
  2
画層68
 70
    0
 62
7
  6
CONTINUOUS
  0
LAYER
  5
7E
100
AcDbSymbolTableRecord
100
AcDbLayerTableRecord
  2
画層69
 70
    0
 62
7
  6
CONTINUOUS
  0
LAYER
  5
7F
100
AcDbSymbolTableRecord
100
AcDbLayerTableRecord
  2
画層70
 70
    0
 62
7
  6
CONTINUOUS
  0
LAYER
  5
80
100
AcDbSymbolTableRecord
100
AcDbLayerTableRecord
  2
画層71
 70
    0
 62
7
  6
CONTINUOUS
  0
LAYER
  5
81
100
AcDbSymbolTableRecord
100
AcDbLayerTableRecord
  2
画層72
 70
    0
 62
7
  6
CONTINUOUS
  0
LAYER
  5
82
100
AcDbSymbolTableRecord
100
AcDbLayerTableRecord
  2
画層73
 70
    0
 62
7
  6
CONTINUOUS
  0
LAYER
  5
83
100
AcDbSymbolTableRecord
100
AcDbLayerTableRecord
  2
画層74
 70
    0
 62
7
  6
CONTINUOUS
  0
LAYER
  5
84
100
AcDbSymbolTableRecord
100
AcDbLayerTableRecord
  2
画層75
 70
    0
 62
7
  6
CONTINUOUS
  0
LAYER
  5
85
100
AcDbSymbolTableRecord
100
AcDbLayerTableRecord
  2
画層76
 70
    0
 62
7
  6
CONTINUOUS
  0
LAYER
  5
86
100
AcDbSymbolTableRecord
100
AcDbLayerTableRecord
  2
画層77
 70
    0
 62
7
  6
CONTINUOUS
  0
LAYER
  5
87
100
AcDbSymbolTableRecord
100
AcDbLayerTableRecord
  2
画層78
 70
    0
 62
7
  6
CONTINUOUS
  0
LAYER
  5
88
100
AcDbSymbolTableRecord
100
AcDbLayerTableRecord
  2
画層79
 70
    0
 62
7
  6
CONTINUOUS
  0
LAYER
  5
89
100
AcDbSymbolTableRecord
100
AcDbLayerTableRecord
  2
画層80
 70
    0
 62
7
  6
CONTINUOUS
  0
LAYER
  5
8A
100
AcDbSymbolTableRecord
100
AcDbLayerTableRecord
  2
画層81
 70
    0
 62
7
  6
CONTINUOUS
  0
LAYER
  5
8B
100
AcDbSymbolTableRecord
100
AcDbLayerTableRecord
  2
画層82
 70
    0
 62
7
  6
CONTINUOUS
  0
LAYER
  5
8C
100
AcDbSymbolTableRecord
100
AcDbLayerTableRecord
  2
画層83
 70
    0
 62
7
  6
CONTINUOUS
  0
LAYER
  5
8D
100
AcDbSymbolTableRecord
100
AcDbLayerTableRecord
  2
画層84
 70
    0
 62
7
  6
CONTINUOUS
  0
LAYER
  5
8E
100
AcDbSymbolTableRecord
100
AcDbLayerTableRecord
  2
画層85
 70
    0
 62
7
  6
CONTINUOUS
  0
LAYER
  5
8F
100
AcDbSymbolTableRecord
100
AcDbLayerTableRecord
  2
画層86
 70
    0
 62
7
  6
CONTINUOUS
  0
LAYER
  5
90
100
AcDbSymbolTableRecord
100
AcDbLayerTableRecord
  2
画層87
 70
    0
 62
7
  6
CONTINUOUS
  0
LAYER
  5
91
100
AcDbSymbolTableRecord
100
AcDbLayerTableRecord
  2
画層88
 70
    0
 62
7
  6
CONTINUOUS
  0
LAYER
  5
92
100
AcDbSymbolTableRecord
100
AcDbLayerTableRecord
  2
画層89
 70
    0
 62
7
  6
CONTINUOUS
  0
LAYER
  5
93
100
AcDbSymbolTableRecord
100
AcDbLayerTableRecord
  2
画層90
 70
    0
 62
7
  6
CONTINUOUS
  0
LAYER
  5
94
100
AcDbSymbolTableRecord
100
AcDbLayerTableRecord
  2
画層91
 70
    0
 62
7
  6
CONTINUOUS
  0
LAYER
  5
95
100
AcDbSymbolTableRecord
100
AcDbLayerTableRecord
  2
画層92
 70
    0
 62
7
  6
CONTINUOUS
  0
LAYER
  5
96
100
AcDbSymbolTableRecord
100
AcDbLayerTableRecord
  2
画層93
 70
    0
 62
7
  6
CONTINUOUS
  0
LAYER
  5
97
100
AcDbSymbolTableRecord
100
AcDbLayerTableRecord
  2
画層94
 70
    0
 62
7
  6
CONTINUOUS
  0
LAYER
  5
98
100
AcDbSymbolTableRecord
100
AcDbLayerTableRecord
  2
画層95
 70
    0
 62
7
  6
CONTINUOUS
  0
LAYER
  5
99
100
AcDbSymbolTableRecord
100
AcDbLayerTableRecord
  2
画層96
 70
    0
 62
7
  6
CONTINUOUS
  0
LAYER
  5
9A
100
AcDbSymbolTableRecord
100
AcDbLayerTableRecord
  2
画層97
 70
    0
 62
7
  6
CONTINUOUS
  0
LAYER
  5
9B
100
AcDbSymbolTableRecord
100
AcDbLayerTableRecord
  2
画層98
 70
    0
 62
7
  6
CONTINUOUS
  0
LAYER
  5
9C
100
AcDbSymbolTableRecord
100
AcDbLayerTableRecord
  2
画層99
 70
    0
 62
7
  6
CONTINUOUS
  0
LAYER
  5
9D
100
AcDbSymbolTableRecord
100
AcDbLayerTableRecord
  2
画層100
 70
    0
 62
7
  6
CONTINUOUS
  0
LAYER
  5
9E
100
AcDbSymbolTableRecord
100
AcDbLayerTableRecord
  2
画層101
 70
    0
 62
7
  6
CONTINUOUS
  0
LAYER
  5
9F
100
AcDbSymbolTableRecord
100
AcDbLayerTableRecord
  2
画層102
 70
    0
 62
7
  6
CONTINUOUS
  0
LAYER
  5
A0
100
AcDbSymbolTableRecord
100
AcDbLayerTableRecord
  2
画層103
 70
    0
 62
7
  6
CONTINUOUS
  0
LAYER
  5
A1
100
AcDbSymbolTableRecord
100
AcDbLayerTableRecord
  2
画層104
 70
    0
 62
7
  6
CONTINUOUS
  0
LAYER
  5
A2
100
AcDbSymbolTableRecord
100
AcDbLayerTableRecord
  2
画層105
 70
    0
 62
7
  6
CONTINUOUS
  0
LAYER
  5
A3
100
AcDbSymbolTableRecord
100
AcDbLayerTableRecord
  2
画層106
 70
    0
 62
7
  6
CONTINUOUS
  0
LAYER
  5
A4
100
AcDbSymbolTableRecord
100
AcDbLayerTableRecord
  2
画層107
 70
    0
 62
7
  6
CONTINUOUS
  0
LAYER
  5
A5
100
AcDbSymbolTableRecord
100
AcDbLayerTableRecord
  2
画層108
 70
    0
 62
7
  6
CONTINUOUS
  0
LAYER
  5
A6
100
AcDbSymbolTableRecord
100
AcDbLayerTableRecord
  2
画層109
 70
    0
 62
7
  6
CONTINUOUS
  0
LAYER
  5
A7
100
AcDbSymbolTableRecord
100
AcDbLayerTableRecord
  2
画層110
 70
    0
 62
7
  6
CONTINUOUS
  0
LAYER
  5
A8
100
AcDbSymbolTableRecord
100
AcDbLayerTableRecord
  2
画層111
 70
    0
 62
7
  6
CONTINUOUS
  0
LAYER
  5
A9
100
AcDbSymbolTableRecord
100
AcDbLayerTableRecord
  2
画層112
 70
    0
 62
7
  6
CONTINUOUS
  0
LAYER
  5
AA
100
AcDbSymbolTableRecord
100
AcDbLayerTableRecord
  2
画層113
 70
    0
 62
7
  6
CONTINUOUS
  0
LAYER
  5
AB
100
AcDbSymbolTableRecord
100
AcDbLayerTableRecord
  2
画層114
 70
    0
 62
7
  6
CONTINUOUS
  0
LAYER
  5
AC
100
AcDbSymbolTableRecord
100
AcDbLayerTableRecord
  2
画層115
 70
    0
 62
7
  6
CONTINUOUS
  0
LAYER
  5
AD
100
AcDbSymbolTableRecord
100
AcDbLayerTableRecord
  2
画層116
 70
    0
 62
7
  6
CONTINUOUS
  0
LAYER
  5
AE
100
AcDbSymbolTableRecord
100
AcDbLayerTableRecord
  2
画層117
 70
    0
 62
7
  6
CONTINUOUS
  0
LAYER
  5
AF
100
AcDbSymbolTableRecord
100
AcDbLayerTableRecord
  2
画層118
 70
    0
 62
7
  6
CONTINUOUS
  0
LAYER
  5
B0
100
AcDbSymbolTableRecord
100
AcDbLayerTableRecord
  2
画層119
 70
    0
 62
7
  6
CONTINUOUS
  0
LAYER
  5
B1
100
AcDbSymbolTableRecord
100
AcDbLayerTableRecord
  2
画層120
 70
    0
 62
7
  6
CONTINUOUS
  0
LAYER
  5
B2
100
AcDbSymbolTableRecord
100
AcDbLayerTableRecord
  2
画層121
 70
    0
 62
7
  6
CONTINUOUS
  0
LAYER
  5
B3
100
AcDbSymbolTableRecord
100
AcDbLayerTableRecord
  2
画層122
 70
    0
 62
7
  6
CONTINUOUS
  0
LAYER
  5
B4
100
AcDbSymbolTableRecord
100
AcDbLayerTableRecord
  2
画層123
 70
    0
 62
7
  6
CONTINUOUS
  0
LAYER
  5
B5
100
AcDbSymbolTableRecord
100
AcDbLayerTableRecord
  2
画層124
 70
    0
 62
7
  6
CONTINUOUS
  0
LAYER
  5
B6
100
AcDbSymbolTableRecord
100
AcDbLayerTableRecord
  2
画層125
 70
    0
 62
7
  6
CONTINUOUS
  0
LAYER
  5
B7
100
AcDbSymbolTableRecord
100
AcDbLayerTableRecord
  2
画層126
 70
    0
 62
7
  6
CONTINUOUS
  0
LAYER
  5
B8
100
AcDbSymbolTableRecord
100
AcDbLayerTableRecord
  2
画層127
 70
    0
 62
7
  6
CONTINUOUS
  0
LAYER
  5
B9
100
AcDbSymbolTableRecord
100
AcDbLayerTableRecord
  2
画層128
 70
    0
 62
7
  6
CONTINUOUS
  0
LAYER
  5
BA
100
AcDbSymbolTableRecord
100
AcDbLayerTableRecord
  2
画層129
 70
    0
 62
7
  6
CONTINUOUS
  0
LAYER
  5
BB
100
AcDbSymbolTableRecord
100
AcDbLayerTableRecord
  2
画層130
 70
    0
 62
7
  6
CONTINUOUS
  0
LAYER
  5
BC
100
AcDbSymbolTableRecord
100
AcDbLayerTableRecord
  2
画層131
 70
    0
 62
7
  6
CONTINUOUS
  0
LAYER
  5
BD
100
AcDbSymbolTableRecord
100
AcDbLayerTableRecord
  2
画層132
 70
    0
 62
7
  6
CONTINUOUS
  0
LAYER
  5
BE
100
AcDbSymbolTableRecord
100
AcDbLayerTableRecord
  2
画層133
 70
    0
 62
7
  6
CONTINUOUS
  0
LAYER
  5
BF
100
AcDbSymbolTableRecord
100
AcDbLayerTableRecord
  2
画層134
 70
    0
 62
7
  6
CONTINUOUS
  0
LAYER
  5
C0
100
AcDbSymbolTableRecord
100
AcDbLayerTableRecord
  2
画層135
 70
    0
 62
7
  6
CONTINUOUS
  0
LAYER
  5
C1
100
AcDbSymbolTableRecord
100
AcDbLayerTableRecord
  2
画層136
 70
    0
 62
7
  6
CONTINUOUS
  0
LAYER
  5
C2
100
AcDbSymbolTableRecord
100
AcDbLayerTableRecord
  2
画層137
 70
    0
 62
7
  6
CONTINUOUS
  0
LAYER
  5
C3
100
AcDbSymbolTableRecord
100
AcDbLayerTableRecord
  2
画層138
 70
    0
 62
7
  6
CONTINUOUS
  0
LAYER
  5
C4
100
AcDbSymbolTableRecord
100
AcDbLayerTableRecord
  2
画層139
 70
    0
 62
7
  6
CONTINUOUS
  0
LAYER
  5
C5
100
AcDbSymbolTableRecord
100
AcDbLayerTableRecord
  2
画層140
 70
    0
 62
7
  6
CONTINUOUS
  0
LAYER
  5
C6
100
AcDbSymbolTableRecord
100
AcDbLayerTableRecord
  2
画層141
 70
    0
 62
7
  6
CONTINUOUS
  0
LAYER
  5
C7
100
AcDbSymbolTableRecord
100
AcDbLayerTableRecord
  2
画層142
 70
    0
 62
7
  6
CONTINUOUS
  0
LAYER
  5
C8
100
AcDbSymbolTableRecord
100
AcDbLayerTableRecord
  2
画層143
 70
    0
 62
7
  6
CONTINUOUS
  0
LAYER
  5
C9
100
AcDbSymbolTableRecord
100
AcDbLayerTableRecord
  2
画層144
 70
    0
 62
7
  6
CONTINUOUS
  0
LAYER
  5
CA
100
AcDbSymbolTableRecord
100
AcDbLayerTableRecord
  2
画層145
 70
    0
 62
7
  6
CONTINUOUS
  0
LAYER
  5
CB
100
AcDbSymbolTableRecord
100
AcDbLayerTableRecord
  2
画層146
 70
    0
 62
7
  6
CONTINUOUS
  0
LAYER
  5
CC
100
AcDbSymbolTableRecord
100
AcDbLayerTableRecord
  2
画層147
 70
    0
 62
7
  6
CONTINUOUS
  0
LAYER
  5
CD
100
AcDbSymbolTableRecord
100
AcDbLayerTableRecord
  2
画層148
 70
    0
 62
7
  6
CONTINUOUS
  0
LAYER
  5
CE
100
AcDbSymbolTableRecord
100
AcDbLayerTableRecord
  2
画層149
 70
    0
 62
7
  6
CONTINUOUS
  0
LAYER
  5
CF
100
AcDbSymbolTableRecord
100
AcDbLayerTableRecord
  2
画層150
 70
    0
 62
7
  6
CONTINUOUS
  0
LAYER
  5
D0
100
AcDbSymbolTableRecord
100
AcDbLayerTableRecord
  2
画層151
 70
    0
 62
7
  6
CONTINUOUS
  0
LAYER
  5
D1
100
AcDbSymbolTableRecord
100
AcDbLayerTableRecord
  2
画層152
 70
    0
 62
7
  6
CONTINUOUS
  0
LAYER
  5
D2
100
AcDbSymbolTableRecord
100
AcDbLayerTableRecord
  2
画層153
 70
    0
 62
7
  6
CONTINUOUS
  0
LAYER
  5
D3
100
AcDbSymbolTableRecord
100
AcDbLayerTableRecord
  2
画層154
 70
    0
 62
7
  6
CONTINUOUS
  0
LAYER
  5
D4
100
AcDbSymbolTableRecord
100
AcDbLayerTableRecord
  2
画層155
 70
    0
 62
7
  6
CONTINUOUS
  0
LAYER
  5
D5
100
AcDbSymbolTableRecord
100
AcDbLayerTableRecord
  2
画層156
 70
    0
 62
7
  6
CONTINUOUS
  0
LAYER
  5
D6
100
AcDbSymbolTableRecord
100
AcDbLayerTableRecord
  2
画層157
 70
    0
 62
7
  6
CONTINUOUS
  0
LAYER
  5
D7
100
AcDbSymbolTableRecord
100
AcDbLayerTableRecord
  2
画層158
 70
    0
 62
7
  6
CONTINUOUS
  0
LAYER
  5
D8
100
AcDbSymbolTableRecord
100
AcDbLayerTableRecord
  2
画層159
 70
    0
 62
7
  6
CONTINUOUS
  0
LAYER
  5
D9
100
AcDbSymbolTableRecord
100
AcDbLayerTableRecord
  2
画層160
 70
    0
 62
7
  6
CONTINUOUS
  0
LAYER
  5
DA
100
AcDbSymbolTableRecord
100
AcDbLayerTableRecord
  2
画層161
 70
    0
 62
7
  6
CONTINUOUS
  0
LAYER
  5
DB
100
AcDbSymbolTableRecord
100
AcDbLayerTableRecord
  2
画層162
 70
    0
 62
7
  6
CONTINUOUS
  0
LAYER
  5
DC
100
AcDbSymbolTableRecord
100
AcDbLayerTableRecord
  2
画層163
 70
    0
 62
7
  6
CONTINUOUS
  0
LAYER
  5
DD
100
AcDbSymbolTableRecord
100
AcDbLayerTableRecord
  2
画層164
 70
    0
 62
7
  6
CONTINUOUS
  0
LAYER
  5
DE
100
AcDbSymbolTableRecord
100
AcDbLayerTableRecord
  2
画層165
 70
    0
 62
7
  6
CONTINUOUS
  0
LAYER
  5
DF
100
AcDbSymbolTableRecord
100
AcDbLayerTableRecord
  2
画層166
 70
    0
 62
7
  6
CONTINUOUS
  0
LAYER
  5
E0
100
AcDbSymbolTableRecord
100
AcDbLayerTableRecord
  2
画層167
 70
    0
 62
7
  6
CONTINUOUS
  0
LAYER
  5
E1
100
AcDbSymbolTableRecord
100
AcDbLayerTableRecord
  2
画層168
 70
    0
 62
7
  6
CONTINUOUS
  0
LAYER
  5
E2
100
AcDbSymbolTableRecord
100
AcDbLayerTableRecord
  2
画層169
 70
    0
 62
7
  6
CONTINUOUS
  0
LAYER
  5
E3
100
AcDbSymbolTableRecord
100
AcDbLayerTableRecord
  2
画層170
 70
    0
 62
7
  6
CONTINUOUS
  0
LAYER
  5
E4
100
AcDbSymbolTableRecord
100
AcDbLayerTableRecord
  2
画層171
 70
    0
 62
7
  6
CONTINUOUS
  0
LAYER
  5
E5
100
AcDbSymbolTableRecord
100
AcDbLayerTableRecord
  2
画層172
 70
    0
 62
7
  6
CONTINUOUS
  0
LAYER
  5
E6
100
AcDbSymbolTableRecord
100
AcDbLayerTableRecord
  2
画層173
 70
    0
 62
7
  6
CONTINUOUS
  0
LAYER
  5
E7
100
AcDbSymbolTableRecord
100
AcDbLayerTableRecord
  2
画層174
 70
    0
 62
7
  6
CONTINUOUS
  0
LAYER
  5
E8
100
AcDbSymbolTableRecord
100
AcDbLayerTableRecord
  2
画層175
 70
    0
 62
7
  6
CONTINUOUS
  0
LAYER
  5
E9
100
AcDbSymbolTableRecord
100
AcDbLayerTableRecord
  2
画層176
 70
    0
 62
7
  6
CONTINUOUS
  0
LAYER
  5
EA
100
AcDbSymbolTableRecord
100
AcDbLayerTableRecord
  2
画層177
 70
    0
 62
7
  6
CONTINUOUS
  0
LAYER
  5
EB
100
AcDbSymbolTableRecord
100
AcDbLayerTableRecord
  2
画層178
 70
    0
 62
7
  6
CONTINUOUS
  0
LAYER
  5
EC
100
AcDbSymbolTableRecord
100
AcDbLayerTableRecord
  2
画層179
 70
    0
 62
7
  6
CONTINUOUS
  0
LAYER
  5
ED
100
AcDbSymbolTableRecord
100
AcDbLayerTableRecord
  2
画層180
 70
    0
 62
7
  6
CONTINUOUS
  0
LAYER
  5
EE
100
AcDbSymbolTableRecord
100
AcDbLayerTableRecord
  2
画層181
 70
    0
 62
7
  6
CONTINUOUS
  0
LAYER
  5
EF
100
AcDbSymbolTableRecord
100
AcDbLayerTableRecord
  2
画層182
 70
    0
 62
7
  6
CONTINUOUS
  0
LAYER
  5
F0
100
AcDbSymbolTableRecord
100
AcDbLayerTableRecord
  2
画層183
 70
    0
 62
7
  6
CONTINUOUS
  0
LAYER
  5
F1
100
AcDbSymbolTableRecord
100
AcDbLayerTableRecord
  2
画層184
 70
    0
 62
7
  6
CONTINUOUS
  0
LAYER
  5
F2
100
AcDbSymbolTableRecord
100
AcDbLayerTableRecord
  2
画層185
 70
    0
 62
7
  6
CONTINUOUS
  0
LAYER
  5
F3
100
AcDbSymbolTableRecord
100
AcDbLayerTableRecord
  2
画層186
 70
    0
 62
7
  6
CONTINUOUS
  0
LAYER
  5
F4
100
AcDbSymbolTableRecord
100
AcDbLayerTableRecord
  2
画層187
 70
    0
 62
7
  6
CONTINUOUS
  0
LAYER
  5
F5
100
AcDbSymbolTableRecord
100
AcDbLayerTableRecord
  2
画層188
 70
    0
 62
7
  6
CONTINUOUS
  0
LAYER
  5
F6
100
AcDbSymbolTableRecord
100
AcDbLayerTableRecord
  2
画層189
 70
    0
 62
7
  6
CONTINUOUS
  0
LAYER
  5
F7
100
AcDbSymbolTableRecord
100
AcDbLayerTableRecord
  2
画層190
 70
    0
 62
7
  6
CONTINUOUS
  0
LAYER
  5
F8
100
AcDbSymbolTableRecord
100
AcDbLayerTableRecord
  2
画層191
 70
    0
 62
7
  6
CONTINUOUS
  0
LAYER
  5
F9
100
AcDbSymbolTableRecord
100
AcDbLayerTableRecord
  2
画層192
 70
    0
 62
7
  6
CONTINUOUS
  0
LAYER
  5
FA
100
AcDbSymbolTableRecord
100
AcDbLayerTableRecord
  2
画層193
 70
    0
 62
7
  6
CONTINUOUS
  0
LAYER
  5
FB
100
AcDbSymbolTableRecord
100
AcDbLayerTableRecord
  2
画層194
 70
    0
 62
7
  6
CONTINUOUS
  0
LAYER
  5
FC
100
AcDbSymbolTableRecord
100
AcDbLayerTableRecord
  2
画層195
 70
    0
 62
7
  6
CONTINUOUS
  0
LAYER
  5
FD
100
AcDbSymbolTableRecord
100
AcDbLayerTableRecord
  2
画層196
 70
    0
 62
7
  6
CONTINUOUS
  0
LAYER
  5
FE
100
AcDbSymbolTableRecord
100
AcDbLayerTableRecord
  2
画層197
 70
    0
 62
7
  6
CONTINUOUS
  0
LAYER
  5
FF
100
AcDbSymbolTableRecord
100
AcDbLayerTableRecord
  2
画層198
 70
    0
 62
7
  6
CONTINUOUS
  0
LAYER
  5
100
100
AcDbSymbolTableRecord
100
AcDbLayerTableRecord
  2
画層199
 70
    0
 62
7
  6
CONTINUOUS
  0
LAYER
  5
101
100
AcDbSymbolTableRecord
100
AcDbLayerTableRecord
  2
画層200
 70
    0
 62
7
  6
CONTINUOUS
  0
LAYER
  5
102
100
AcDbSymbolTableRecord
100
AcDbLayerTableRecord
  2
画層201
 70
    0
 62
7
  6
CONTINUOUS
  0
LAYER
  5
103
100
AcDbSymbolTableRecord
100
AcDbLayerTableRecord
  2
画層202
 70
    0
 62
7
  6
CONTINUOUS
  0
LAYER
  5
104
100
AcDbSymbolTableRecord
100
AcDbLayerTableRecord
  2
画層203
 70
    0
 62
7
  6
CONTINUOUS
  0
LAYER
  5
105
100
AcDbSymbolTableRecord
100
AcDbLayerTableRecord
  2
画層204
 70
    0
 62
7
  6
CONTINUOUS
  0
LAYER
  5
106
100
AcDbSymbolTableRecord
100
AcDbLayerTableRecord
  2
画層205
 70
    0
 62
7
  6
CONTINUOUS
  0
LAYER
  5
107
100
AcDbSymbolTableRecord
100
AcDbLayerTableRecord
  2
画層206
 70
    0
 62
7
  6
CONTINUOUS
  0
LAYER
  5
108
100
AcDbSymbolTableRecord
100
AcDbLayerTableRecord
  2
画層207
 70
    0
 62
7
  6
CONTINUOUS
  0
LAYER
  5
109
100
AcDbSymbolTableRecord
100
AcDbLayerTableRecord
  2
画層208
 70
    0
 62
7
  6
CONTINUOUS
  0
LAYER
  5
10A
100
AcDbSymbolTableRecord
100
AcDbLayerTableRecord
  2
画層209
 70
    0
 62
7
  6
CONTINUOUS
  0
LAYER
  5
10B
100
AcDbSymbolTableRecord
100
AcDbLayerTableRecord
  2
画層210
 70
    0
 62
7
  6
CONTINUOUS
  0
LAYER
  5
10C
100
AcDbSymbolTableRecord
100
AcDbLayerTableRecord
  2
画層211
 70
    0
 62
7
  6
CONTINUOUS
  0
LAYER
  5
10D
100
AcDbSymbolTableRecord
100
AcDbLayerTableRecord
  2
画層212
 70
    0
 62
7
  6
CONTINUOUS
  0
LAYER
  5
10E
100
AcDbSymbolTableRecord
100
AcDbLayerTableRecord
  2
画層213
 70
    0
 62
7
  6
CONTINUOUS
  0
LAYER
  5
10F
100
AcDbSymbolTableRecord
100
AcDbLayerTableRecord
  2
画層214
 70
    0
 62
7
  6
CONTINUOUS
  0
LAYER
  5
110
100
AcDbSymbolTableRecord
100
AcDbLayerTableRecord
  2
画層215
 70
    0
 62
7
  6
CONTINUOUS
  0
LAYER
  5
111
100
AcDbSymbolTableRecord
100
AcDbLayerTableRecord
  2
画層216
 70
    0
 62
7
  6
CONTINUOUS
  0
LAYER
  5
112
100
AcDbSymbolTableRecord
100
AcDbLayerTableRecord
  2
画層217
 70
    0
 62
7
  6
CONTINUOUS
  0
LAYER
  5
113
100
AcDbSymbolTableRecord
100
AcDbLayerTableRecord
  2
画層218
 70
    0
 62
7
  6
CONTINUOUS
  0
LAYER
  5
114
100
AcDbSymbolTableRecord
100
AcDbLayerTableRecord
  2
画層219
 70
    0
 62
7
  6
CONTINUOUS
  0
LAYER
  5
115
100
AcDbSymbolTableRecord
100
AcDbLayerTableRecord
  2
画層220
 70
    0
 62
7
  6
CONTINUOUS
  0
LAYER
  5
116
100
AcDbSymbolTableRecord
100
AcDbLayerTableRecord
  2
画層221
 70
    0
 62
7
  6
CONTINUOUS
  0
LAYER
  5
117
100
AcDbSymbolTableRecord
100
AcDbLayerTableRecord
  2
画層222
 70
    0
 62
7
  6
CONTINUOUS
  0
LAYER
  5
118
100
AcDbSymbolTableRecord
100
AcDbLayerTableRecord
  2
画層223
 70
    0
 62
7
  6
CONTINUOUS
  0
LAYER
  5
119
100
AcDbSymbolTableRecord
100
AcDbLayerTableRecord
  2
画層224
 70
    0
 62
7
  6
CONTINUOUS
  0
LAYER
  5
11A
100
AcDbSymbolTableRecord
100
AcDbLayerTableRecord
  2
画層225
 70
    0
 62
7
  6
CONTINUOUS
  0
LAYER
  5
11B
100
AcDbSymbolTableRecord
100
AcDbLayerTableRecord
  2
画層226
 70
    0
 62
7
  6
CONTINUOUS
  0
LAYER
  5
11C
100
AcDbSymbolTableRecord
100
AcDbLayerTableRecord
  2
画層227
 70
    0
 62
7
  6
CONTINUOUS
  0
LAYER
  5
11D
100
AcDbSymbolTableRecord
100
AcDbLayerTableRecord
  2
画層228
 70
    0
 62
7
  6
CONTINUOUS
  0
LAYER
  5
11E
100
AcDbSymbolTableRecord
100
AcDbLayerTableRecord
  2
画層229
 70
    0
 62
7
  6
CONTINUOUS
  0
LAYER
  5
11F
100
AcDbSymbolTableRecord
100
AcDbLayerTableRecord
  2
画層230
 70
    0
 62
7
  6
CONTINUOUS
  0
LAYER
  5
120
100
AcDbSymbolTableRecord
100
AcDbLayerTableRecord
  2
画層231
 70
    0
 62
7
  6
CONTINUOUS
  0
LAYER
  5
121
100
AcDbSymbolTableRecord
100
AcDbLayerTableRecord
  2
画層232
 70
    0
 62
7
  6
CONTINUOUS
  0
LAYER
  5
122
100
AcDbSymbolTableRecord
100
AcDbLayerTableRecord
  2
画層233
 70
    0
 62
7
  6
CONTINUOUS
  0
LAYER
  5
123
100
AcDbSymbolTableRecord
100
AcDbLayerTableRecord
  2
画層234
 70
    0
 62
7
  6
CONTINUOUS
  0
LAYER
  5
124
100
AcDbSymbolTableRecord
100
AcDbLayerTableRecord
  2
画層235
 70
    0
 62
7
  6
CONTINUOUS
  0
LAYER
  5
125
100
AcDbSymbolTableRecord
100
AcDbLayerTableRecord
  2
画層236
 70
    0
 62
7
  6
CONTINUOUS
  0
LAYER
  5
126
100
AcDbSymbolTableRecord
100
AcDbLayerTableRecord
  2
画層237
 70
    0
 62
7
  6
CONTINUOUS
  0
LAYER
  5
127
100
AcDbSymbolTableRecord
100
AcDbLayerTableRecord
  2
画層238
 70
    0
 62
7
  6
CONTINUOUS
  0
LAYER
  5
128
100
AcDbSymbolTableRecord
100
AcDbLayerTableRecord
  2
画層239
 70
    0
 62
7
  6
CONTINUOUS
  0
LAYER
  5
129
100
AcDbSymbolTableRecord
100
AcDbLayerTableRecord
  2
画層240
 70
    0
 62
7
  6
CONTINUOUS
  0
LAYER
  5
12A
100
AcDbSymbolTableRecord
100
AcDbLayerTableRecord
  2
画層241
 70
    0
 62
7
  6
CONTINUOUS
  0
LAYER
  5
12B
100
AcDbSymbolTableRecord
100
AcDbLayerTableRecord
  2
画層242
 70
    0
 62
7
  6
CONTINUOUS
  0
LAYER
  5
12C
100
AcDbSymbolTableRecord
100
AcDbLayerTableRecord
  2
画層243
 70
    0
 62
7
  6
CONTINUOUS
  0
LAYER
  5
12D
100
AcDbSymbolTableRecord
100
AcDbLayerTableRecord
  2
画層244
 70
    0
 62
7
  6
CONTINUOUS
  0
LAYER
  5
12E
100
AcDbSymbolTableRecord
100
AcDbLayerTableRecord
  2
画層245
 70
    0
 62
7
  6
CONTINUOUS
  0
LAYER
  5
12F
100
AcDbSymbolTableRecord
100
AcDbLayerTableRecord
  2
画層246
 70
    0
 62
7
  6
CONTINUOUS
  0
LAYER
  5
130
100
AcDbSymbolTableRecord
100
AcDbLayerTableRecord
  2
画層247
 70
    0
 62
7
  6
CONTINUOUS
  0
LAYER
  5
131
100
AcDbSymbolTableRecord
100
AcDbLayerTableRecord
  2
画層248
 70
    0
 62
7
  6
CONTINUOUS
  0
LAYER
  5
132
100
AcDbSymbolTableRecord
100
AcDbLayerTableRecord
  2
画層249
 70
    0
 62
7
  6
CONTINUOUS
  0
LAYER
  5
133
100
AcDbSymbolTableRecord
100
AcDbLayerTableRecord
  2
画層250
 70
    0
 62
7
  6
CONTINUOUS
  0
LAYER
  5
134
100
AcDbSymbolTableRecord
100
AcDbLayerTableRecord
  2
画層251
 70
    0
 62
7
  6
CONTINUOUS
  0
LAYER
  5
135
100
AcDbSymbolTableRecord
100
AcDbLayerTableRecord
  2
画層252
 70
    0
 62
7
  6
CONTINUOUS
  0
LAYER
  5
136
100
AcDbSymbolTableRecord
100
AcDbLayerTableRecord
  2
画層253
 70
    0
 62
7
  6
CONTINUOUS
  0
LAYER
  5
137
100
AcDbSymbolTableRecord
100
AcDbLayerTableRecord
  2
画層254
 70
    0
 62
7
  6
CONTINUOUS
  0
LAYER
  5
138
100
AcDbSymbolTableRecord
100
AcDbLayerTableRecord
  2
画層255
 70
    0
 62
7
  6
CONTINUOUS
  0
LAYER
  5
139
100
AcDbSymbolTableRecord
100
AcDbLayerTableRecord
  2
0
 70
   64
 62
    7
  6
CONTINUOUS
  0
ENDTAB
  0
TABLE
  2
STYLE
  5
4
100
AcDbSymbolTable
 70
     1
  0
STYLE
  5
13A
100
AcDbSymbolTableRecord
100
AcDbTextStyleTableRecord
  2
Standard
 70
     0
 40
0.0
 41
1.0
 50
0.0
 71
     0
 42
3.2
  3
TXT
  4
BIGFONT
  0
STYLE
  5
13B
100
AcDbSymbolTableRecord
100
AcDbTextStyleTableRecord
  2
Font_0
 70
     0
 40
0.0
 41
1.0
 50
0.0
 71
     0
 42
3.2
  3
MS Gothic.ttf
  4

1001
ACAD
1000
MS Gothic
1071
  32817
  0
ENDTAB
  0
TABLE
  2
VIEW
  5
5
100
AcDbSymbolTable
 70
     0
  0
ENDTAB
  0
TABLE
  2
UCS
  5
6
100
AcDbSymbolTable
 70
     0
  0
ENDTAB
  0
TABLE
  2
APPID
  5
7
100
AcDbSymbolTable
 70
     1
  0
APPID
  5
13C
100
AcDbSymbolTableRecord
100
AcDbRegAppTableRecord
  2
ACAD
 70
     0
  0
ENDTAB
  0
TABLE
  2
DIMSTYLE
  5
8
100
AcDbSymbolTable
 70
     1
  0
DIMSTYLE
105
2A
100
AcDbSymbolTableRecord
100
AcDbDimStyleTableRecord
  2
STANDARD
 70
     0
  3

  4

  5

  6

  7

 40
1.0
 41
2.5
 42
2.0
 43
7.0
 44
1.25
 45
0.0
 46
0.0
 47
0.0
 48
0.0
 71
     0
 72
     0
 73
     0
 74
     0
 75
     0
 76
     0
 77
     1
 78
     0
140
2.5
141
2.5
142
0.0
143
0.0394
144
1.0
145
0.0
146
1.0
147
1.0
170
     0
171
     2
172
     0
173
     0
174
     1
175
     0
176
     0
177
     0
178
     0
270
     2
271
     2
272
     4
273
     2
274
     2
275
     0
280
     0
281
     0
282
     0
283
     1
284
     0
285
     0
286
     0
287
     3
288
     0
  0
ENDTAB
  0
TABLE
  2
BLOCK_RECORD
  5
9
100
AcDbSymbolTable
 70
     0
  0
BLOCK_RECORD
  5
13D
100
AcDbSymbolTableRecord
100
AcDbBlockTableRecord
  2
*MODEL_SPACE
  0
BLOCK_RECORD
  5
13E
100
AcDbSymbolTableRecord
100
AcDbBlockTableRecord
  2
*PAPER_SPACE
  0
ENDTAB
  0
ENDSEC
  0
SECTION
  2
BLOCKS
  0
BLOCK
  5
140
100
AcDbEntity
  8
0
100
AcDbBlockBegin
2
*MODEL_SPACE
 70
     0
 10
0.0
 20
0.0
 30
0.0
  3
*MODEL_SPACE
  1

  0
ENDBLK
  5
141
100
AcDbEntity
  8
画層0
100
AcDbBlockEnd
  0
BLOCK
  5
142
100
AcDbEntity
 67
     1
  8
画層0
100
AcDbBlockBegin
  2
*PAPER_SPACE
 70
     0
 10
0.0
 20
0.0
 30
0.0
  3
*PAPER_SPACE
  1

  0
ENDBLK
  5
143
100
AcDbEntity
 67
     1
  8
画層0
100
AcDbBlockEnd
  0
ENDSEC
  0
SECTION
  2
ENTITIES
  0
LINE
  5
144
100
AcDbEntity
  8
画層0
100
AcDbLine
  6
CONTINUOUS
 10
70
 20
130
 11
70
 21
110
  0
LINE
  5
145
100
AcDbEntity
  8
画層0
100
AcDbLine
  6
CONTINUOUS
 10
65
 20
125
 11
65
 21
115
  0
LINE
  5
146
100
AcDbEntity
  8
画層0
100
AcDbLine
  6
CONTINUOUS
 10
70
 20
120
 11
80
 21
120
  0
LINE
  5
147
100
AcDbEntity
  8
画層0
100
AcDbLine
  6
CONTINUOUS
 10
70
 20
127.5
 11
80
 21
127.5
  0
LINE
  5
148
100
AcDbEntity
  8
画層0
100
AcDbLine
  6
CONTINUOUS
 10
80
 20
112.5
 11
70
 21
112.5
  0
LINE
  5
149
100
AcDbEntity
  8
画層0
100
AcDbLine
  6
CONTINUOUS
 10
65
 20
120
 11
60
 21
120
  0
LINE
  5
14A
100
AcDbEntity
  8
画層0
100
AcDbLine
  6
CONTINUOUS
 10
80
 20
120
 11
75
 21
118.75
  0
LINE
  5
14B
100
AcDbEntity
  8
画層0
100
AcDbLine
  6
CONTINUOUS
 10
80
 20
120
 11
75
 21
121.25
  0
LINE
  5
14C
100
AcDbEntity
  8
画層0
100
AcDbLine
  6
CONTINUOUS
 10
80
 20
112.5
 11
80
 21
110
  0
LINE
  5
14D
100
AcDbEntity
  8
画層0
100
AcDbLine
  6
CONTINUOUS
 10
80
 20
120
 11
80
 21
130
  0
LINE
  5
14E
100
AcDbEntity
  8
画層0
100
AcDbLine
  6
CONTINUOUS
 10
70
 20
30
 11
70
 21
50
  0
LINE
  5
14F
100
AcDbEntity
  8
画層0
100
AcDbLine
  6
CONTINUOUS
 10
65
 20
35
 11
65
 21
45
  0
LINE
  5
150
100
AcDbEntity
  8
画層0
100
AcDbLine
  6
CONTINUOUS
 10
65
 20
40
 11
60
 21
40
  0
LINE
  5
151
100
AcDbEntity
  8
画層0
100
AcDbLine
  6
CONTINUOUS
 10
69.5
 20
130
 11
69.5
 21
110
  0
LINE
  5
152
100
AcDbEntity
  8
画層0
100
AcDbLine
  6
CONTINUOUS
 10
70.5
 20
130
 11
70.5
 21
110
  0
LINE
  5
153
100
AcDbEntity
  8
画層0
100
AcDbLine
  6
CONTINUOUS
 10
64.5
 20
125
 11
64.5
 21
115
  0
LINE
  5
154
100
AcDbEntity
  8
画層0
100
AcDbLine
  6
CONTINUOUS
 10
65.5
 20
125
 11
65.5
 21
115
  0
LWPOLYLINE
  5
155
100
AcDbEntity
  8
画層0
100
AcDbPolyline
  6
CONTINUOUS
 90
     4
 70
     1
 10
69.5
  20
110
 10
70.5
  20
110
 10
70.5
  20
130
 10
69.5
  20
130
  0
SOLID
  5
156
100
AcDbEntity
  8
画層0
100
AcDbTrace
 10
69.5
 20
110
 30
0.0
 11
70.5
 21
110
 31
0.0
 12
69.5
 22
130
 32
0.0
 13
70.5
 23
130
 33
0.0
  0
LWPOLYLINE
  5
157
100
AcDbEntity
  8
画層0
100
AcDbPolyline
  6
CONTINUOUS
 90
     4
 70
     1
 10
64.5
  20
115
 10
65.5
  20
115
 10
65.5
  20
125
 10
64.5
  20
125
  0
SOLID
  5
158
100
AcDbEntity
  8
画層0
100
AcDbTrace
 10
64.5
 20
115
 30
0.0
 11
65.5
 21
115
 31
0.0
 12
64.5
 22
125
 32
0.0
 13
65.5
 23
125
 33
0.0
  0
LWPOLYLINE
  5
159
100
AcDbEntity
  8
画層0
100
AcDbPolyline
  6
CONTINUOUS
 90
     3
 70
     1
 10
80
  20
120
 10
75
  20
121.25
 10
75
  20
118.75
  0
SOLID
  5
15A
100
AcDbEntity
  8
画層0
100
AcDbTrace
 10
80
 20
120
 30
0.0
 11
75
 21
121.25
 31
0.0
 12
75
 22
118.75
 32
0.0
 13
75
 23
118.75
 33
0.0
  0
LINE
  5
15B
100
AcDbEntity
  8
画層0
100
AcDbLine
  6
CONTINUOUS
 10
80
 20
47.5
 11
70
 21
47.5
  0
LINE
  5
15C
100
AcDbEntity
  8
画層0
100
AcDbLine
  6
CONTINUOUS
 10
80
 20
32.5
 11
70
 21
32.5
  0
LINE
  5
15D
100
AcDbEntity
  8
画層0
100
AcDbLine
  6
CONTINUOUS
 10
80
 20
40
 11
70
 21
40
  0
LWPOLYLINE
  5
15E
100
AcDbEntity
  8
画層0
100
AcDbPolyline
  6
CONTINUOUS
 90
     3
 70
     1
 10
75
  20
38.75
 10
75
  20
41.25
 10
70
  20
40
  0
SOLID
  5
15F
100
AcDbEntity
  8
画層0
100
AcDbTrace
 10
75
 20
38.75
 30
0.0
 11
75
 21
41.25
 31
0.0
 12
70
 22
40
 32
0.0
 13
70
 23
40
 33
0.0
  0
LINE
  5
160
100
AcDbEntity
  8
画層0
100
AcDbLine
  6
CONTINUOUS
 10
69.5
 20
50
 11
69.5
 21
30
  0
LINE
  5
161
100
AcDbEntity
  8
画層0
100
AcDbLine
  6
CONTINUOUS
 10
70.5
 20
50
 11
70.5
 21
30
  0
LINE
  5
162
100
AcDbEntity
  8
画層0
100
AcDbLine
  6
CONTINUOUS
 10
64.5
 20
45
 11
64.5
 21
35
  0
LINE
  5
163
100
AcDbEntity
  8
画層0
100
AcDbLine
  6
CONTINUOUS
 10
65.5
 20
45
 11
65.5
 21
35
  0
LWPOLYLINE
  5
164
100
AcDbEntity
  8
画層0
100
AcDbPolyline
  6
CONTINUOUS
 90
     4
 70
     1
 10
64.5
  20
35
 10
65.5
  20
35
 10
65.5
  20
45
 10
64.5
  20
45
  0
SOLID
  5
165
100
AcDbEntity
  8
画層0
100
AcDbTrace
 10
64.5
 20
35
 30
0.0
 11
65.5
 21
35
 31
0.0
 12
64.5
 22
45
 32
0.0
 13
65.5
 23
45
 33
0.0
  0
LWPOLYLINE
  5
166
100
AcDbEntity
  8
画層0
100
AcDbPolyline
  6
CONTINUOUS
 90
     4
 70
     1
 10
69.5
  20
30
 10
70.5
  20
30
 10
70.5
  20
50
 10
69.5
  20
50
  0
SOLID
  5
167
100
AcDbEntity
  8
画層0
100
AcDbTrace
 10
69.5
 20
30
 30
0.0
 11
70.5
 21
30
 31
0.0
 12
69.5
 22
50
 32
0.0
 13
70.5
 23
50
 33
0.0
  0
LINE
  5
168
100
AcDbEntity
  8
画層0
100
AcDbLine
  6
CONTINUOUS
 10
80
 20
32.5
 11
80
 21
30
  0
LINE
  5
169
100
AcDbEntity
  8
画層0
100
AcDbLine
  6
CONTINUOUS
 10
125
 20
15
 11
115
 21
15
  0
LINE
  5
16A
100
AcDbEntity
  8
画層0
100
AcDbLine
  6
CONTINUOUS
 10
125
 20
15
 11
121.666666666667
 21
10
  0
LINE
  5
16B
100
AcDbEntity
  8
画層0
100
AcDbLine
  6
CONTINUOUS
 10
115
 20
10
 11
118.333333333333
 21
15
  0
LINE
  5
16C
100
AcDbEntity
  8
画層0
100
AcDbLine
  6
CONTINUOUS
 10
118.333333333333
 20
10
 11
121.666666666667
 21
15
  0
LINE
  5
16D
100
AcDbEntity
  8
画層0
100
AcDbLine
  6
CONTINUOUS
 10
120
 20
20
 11
120
 21
15
  0
LINE
  5
16E
100
AcDbEntity
  8
画層0
100
AcDbLine
  6
CONTINUOUS
 10
115
 20
14.5
 11
125
 21
14.5
  0
LINE
  5
16F
100
AcDbEntity
  8
画層0
100
AcDbLine
  6
CONTINUOUS
 10
115
 20
15.5
 11
125
 21
15.5
  0
LWPOLYLINE
  5
170
100
AcDbEntity
  8
画層0
100
AcDbPolyline
  6
CONTINUOUS
 90
     4
 70
     1
 10
125
  20
14.5
 10
115
  20
14.5
 10
115
  20
15.5
 10
125
  20
15.5
  0
SOLID
  5
171
100
AcDbEntity
  8
画層0
100
AcDbTrace
 10
125
 20
14.5
 30
0.0
 11
115
 21
14.5
 31
0.0
 12
125
 22
15.5
 32
0.0
 13
115
 23
15.5
 33
0.0
  0
LINE
  5
172
100
AcDbEntity
  8
画層0
100
AcDbLine
  6
CONTINUOUS
 10
130
 20
130
 11
130
 21
110
  0
LINE
  5
173
100
AcDbEntity
  8
画層0
100
AcDbLine
  6
CONTINUOUS
 10
135
 20
125
 11
135
 21
115
  0
LINE
  5
174
100
AcDbEntity
  8
画層0
100
AcDbLine
  6
CONTINUOUS
 10
130
 20
120
 11
120
 21
120
  0
LINE
  5
175
100
AcDbEntity
  8
画層0
100
AcDbLine
  6
CONTINUOUS
 10
130
 20
127.5
 11
120
 21
127.5
  0
LINE
  5
176
100
AcDbEntity
  8
画層0
100
AcDbLine
  6
CONTINUOUS
 10
120
 20
112.5
 11
130
 21
112.5
  0
LINE
  5
177
100
AcDbEntity
  8
画層0
100
AcDbLine
  6
CONTINUOUS
 10
135
 20
120
 11
140
 21
120
  0
LINE
  5
178
100
AcDbEntity
  8
画層0
100
AcDbLine
  6
CONTINUOUS
 10
120
 20
120
 11
125
 21
118.75
  0
LINE
  5
179
100
AcDbEntity
  8
画層0
100
AcDbLine
  6
CONTINUOUS
 10
120
 20
120
 11
125
 21
121.25
  0
LINE
  5
17A
100
AcDbEntity
  8
画層0
100
AcDbLine
  6
CONTINUOUS
 10
120
 20
112.5
 11
120
 21
110
  0
LINE
  5
17B
100
AcDbEntity
  8
画層0
100
AcDbLine
  6
CONTINUOUS
 10
120
 20
120
 11
120
 21
130
  0
LINE
  5
17C
100
AcDbEntity
  8
画層0
100
AcDbLine
  6
CONTINUOUS
 10
130.5
 20
130
 11
130.5
 21
110
  0
LINE
  5
17D
100
AcDbEntity
  8
画層0
100
AcDbLine
  6
CONTINUOUS
 10
129.5
 20
130
 11
129.5
 21
110
  0
LINE
  5
17E
100
AcDbEntity
  8
画層0
100
AcDbLine
  6
CONTINUOUS
 10
135.5
 20
125
 11
135.5
 21
115
  0
LINE
  5
17F
100
AcDbEntity
  8
画層0
100
AcDbLine
  6
CONTINUOUS
 10
134.5
 20
125
 11
134.5
 21
115
  0
LWPOLYLINE
  5
180
100
AcDbEntity
  8
画層0
100
AcDbPolyline
  6
CONTINUOUS
 90
     4
 70
     1
 10
130.5
  20
110
 10
129.5
  20
110
 10
129.5
  20
130
 10
130.5
  20
130
  0
SOLID
  5
181
100
AcDbEntity
  8
画層0
100
AcDbTrace
 10
130.5
 20
110
 30
0.0
 11
129.5
 21
110
 31
0.0
 12
130.5
 22
130
 32
0.0
 13
129.5
 23
130
 33
0.0
  0
LWPOLYLINE
  5
182
100
AcDbEntity
  8
画層0
100
AcDbPolyline
  6
CONTINUOUS
 90
     4
 70
     1
 10
135.5
  20
115
 10
134.5
  20
115
 10
134.5
  20
125
 10
135.5
  20
125
  0
SOLID
  5
183
100
AcDbEntity
  8
画層0
100
AcDbTrace
 10
135.5
 20
115
 30
0.0
 11
134.5
 21
115
 31
0.0
 12
135.5
 22
125
 32
0.0
 13
134.5
 23
125
 33
0.0
  0
LWPOLYLINE
  5
184
100
AcDbEntity
  8
画層0
100
AcDbPolyline
  6
CONTINUOUS
 90
     3
 70
     1
 10
120
  20
120
 10
125
  20
121.25
 10
125
  20
118.75
  0
SOLID
  5
185
100
AcDbEntity
  8
画層0
100
AcDbTrace
 10
125
 20
118.75
 30
0.0
 11
125
 21
121.25
 31
0.0
 12
120
 22
120
 32
0.0
 13
120
 23
120
 33
0.0
  0
LINE
  5
186
100
AcDbEntity
  8
画層0
100
AcDbLine
  6
CONTINUOUS
 10
80
 20
47.5
 11
80
 21
50
  0
LINE
  5
187
100
AcDbEntity
  8
画層0
100
AcDbLine
  6
CONTINUOUS
 10
80
 20
32.5
 11
80
 21
40
  0
LINE
  5
188
100
AcDbEntity
  8
画層0
100
AcDbLine
  6
CONTINUOUS
 10
80
 20
50
 11
80
 21
70
  0
LINE
  5
189
100
AcDbEntity
  8
画層0
100
AcDbLine
  6
CONTINUOUS
 10
70
 20
70
 11
70
 21
90
  0
LINE
  5
18A
100
AcDbEntity
  8
画層0
100
AcDbLine
  6
CONTINUOUS
 10
65
 20
75
 11
65
 21
85
  0
LINE
  5
18B
100
AcDbEntity
  8
画層0
100
AcDbLine
  6
CONTINUOUS
 10
65
 20
80
 11
60
 21
80
  0
LINE
  5
18C
100
AcDbEntity
  8
画層0
100
AcDbLine
  6
CONTINUOUS
 10
80
 20
87.5
 11
70
 21
87.5
  0
LINE
  5
18D
100
AcDbEntity
  8
画層0
100
AcDbLine
  6
CONTINUOUS
 10
80
 20
72.5
 11
70
 21
72.5
  0
LINE
  5
18E
100
AcDbEntity
  8
画層0
100
AcDbLine
  6
CONTINUOUS
 10
80
 20
80
 11
70
 21
80
  0
LWPOLYLINE
  5
18F
100
AcDbEntity
  8
画層0
100
AcDbPolyline
  6
CONTINUOUS
 90
     3
 70
     1
 10
75
  20
78.75
 10
75
  20
81.25
 10
70
  20
80
  0
SOLID
  5
190
100
AcDbEntity
  8
画層0
100
AcDbTrace
 10
75
 20
78.75
 30
0.0
 11
75
 21
81.25
 31
0.0
 12
70
 22
80
 32
0.0
 13
70
 23
80
 33
0.0
  0
LINE
  5
191
100
AcDbEntity
  8
画層0
100
AcDbLine
  6
CONTINUOUS
 10
69.5
 20
90
 11
69.5
 21
70
  0
LINE
  5
192
100
AcDbEntity
  8
画層0
100
AcDbLine
  6
CONTINUOUS
 10
70.5
 20
90
 11
70.5
 21
70
  0
LINE
  5
193
100
AcDbEntity
  8
画層0
100
AcDbLine
  6
CONTINUOUS
 10
64.5
 20
85
 11
64.5
 21
75
  0
LINE
  5
194
100
AcDbEntity
  8
画層0
100
AcDbLine
  6
CONTINUOUS
 10
65.5
 20
85
 11
65.5
 21
75
  0
LWPOLYLINE
  5
195
100
AcDbEntity
  8
画層0
100
AcDbPolyline
  6
CONTINUOUS
 90
     4
 70
     1
 10
64.5
  20
75
 10
65.5
  20
75
 10
65.5
  20
85
 10
64.5
  20
85
  0
SOLID
  5
196
100
AcDbEntity
  8
画層0
100
AcDbTrace
 10
64.5
 20
75
 30
0.0
 11
65.5
 21
75
 31
0.0
 12
64.5
 22
85
 32
0.0
 13
65.5
 23
85
 33
0.0
  0
LWPOLYLINE
  5
197
100
AcDbEntity
  8
画層0
100
AcDbPolyline
  6
CONTINUOUS
 90
     4
 70
     1
 10
69.5
  20
70
 10
70.5
  20
70
 10
70.5
  20
90
 10
69.5
  20
90
  0
SOLID
  5
198
100
AcDbEntity
  8
画層0
100
AcDbTrace
 10
69.5
 20
70
 30
0.0
 11
70.5
 21
70
 31
0.0
 12
69.5
 22
90
 32
0.0
 13
70.5
 23
90
 33
0.0
  0
LINE
  5
199
100
AcDbEntity
  8
画層0
100
AcDbLine
  6
CONTINUOUS
 10
80
 20
72.5
 11
80
 21
70
  0
LINE
  5
19A
100
AcDbEntity
  8
画層0
100
AcDbLine
  6
CONTINUOUS
 10
80
 20
87.5
 11
80
 21
90
  0
LINE
  5
19B
100
AcDbEntity
  8
画層0
100
AcDbLine
  6
CONTINUOUS
 10
80
 20
72.5
 11
80
 21
80
  0
LINE
  5
19C
100
AcDbEntity
  8
画層0
100
AcDbLine
  6
CONTINUOUS
 10
50
 20
120
 11
60
 21
120
  0
LINE
  5
19D
100
AcDbEntity
  8
画層0
100
AcDbLine
  6
CONTINUOUS
 10
30
 20
100
 11
25
 21
102.5
  0
LINE
  5
19E
100
AcDbEntity
  8
画層0
100
AcDbLine
  6
CONTINUOUS
 10
30
 20
100
 11
25
 21
97.5
  0
LINE
  5
19F
100
AcDbEntity
  8
画層0
100
AcDbLine
  6
CONTINUOUS
 10
10
 20
97.5
 11
10
 21
102.5
  0
LINE
  5
1A0
100
AcDbEntity
  8
画層0
100
AcDbLine
  6
CONTINUOUS
 10
25
 20
97.5
 11
10
 21
97.5
  0
LINE
  5
1A1
100
AcDbEntity
  8
画層0
100
AcDbLine
  6
CONTINUOUS
 10
25
 20
102.5
 11
10
 21
102.5
  0
LINE
  5
1A2
100
AcDbEntity
  8
画層0
100
AcDbLine
  6
CONTINUOUS
 10
200
 20
100
 11
205
 21
102.5
  0
LINE
  5
1A3
100
AcDbEntity
  8
画層0
100
AcDbLine
  6
CONTINUOUS
 10
200
 20
100
 11
205
 21
97.5
  0
LINE
  5
1A4
100
AcDbEntity
  8
画層0
100
AcDbLine
  6
CONTINUOUS
 10
220
 20
102.5
 11
220
 21
97.5
  0
LINE
  5
1A5
100
AcDbEntity
  8
画層0
100
AcDbLine
  6
CONTINUOUS
 10
205
 20
102.5
 11
220
 21
102.5
  0
LINE
  5
1A6
100
AcDbEntity
  8
画層0
100
AcDbLine
  6
CONTINUOUS
 10
205
 20
97.5
 11
220
 21
97.5
  0
LINE
  5
1A7
100
AcDbEntity
  8
画層0
100
AcDbLine
  6
CONTINUOUS
 10
80
 20
20
 11
80
 21
30
  0
LINE
  5
1A8
100
AcDbEntity
  8
画層0
100
AcDbLine
  6
CONTINUOUS
 10
80
 20
90
 11
80
 21
110
  0
LINE
  5
1A9
100
AcDbEntity
  8
画層0
100
AcDbLine
  6
CONTINUOUS
 10
70
 20
170
 11
70
 21
150
  0
LINE
  5
1AA
100
AcDbEntity
  8
画層0
100
AcDbLine
  6
CONTINUOUS
 10
65
 20
165
 11
65
 21
155
  0
LINE
  5
1AB
100
AcDbEntity
  8
画層0
100
AcDbLine
  6
CONTINUOUS
 10
70
 20
160
 11
80
 21
160
  0
LINE
  5
1AC
100
AcDbEntity
  8
画層0
100
AcDbLine
  6
CONTINUOUS
 10
70
 20
167.5
 11
80
 21
167.5
  0
LINE
  5
1AD
100
AcDbEntity
  8
画層0
100
AcDbLine
  6
CONTINUOUS
 10
80
 20
152.5
 11
70
 21
152.5
  0
LINE
  5
1AE
100
AcDbEntity
  8
画層0
100
AcDbLine
  6
CONTINUOUS
 10
65
 20
160
 11
60
 21
160
  0
LINE
  5
1AF
100
AcDbEntity
  8
画層0
100
AcDbLine
  6
CONTINUOUS
 10
80
 20
160
 11
75
 21
158.75
  0
LINE
  5
1B0
100
AcDbEntity
  8
画層0
100
AcDbLine
  6
CONTINUOUS
 10
80
 20
160
 11
75
 21
161.25
  0
LINE
  5
1B1
100
AcDbEntity
  8
画層0
100
AcDbLine
  6
CONTINUOUS
 10
80
 20
152.5
 11
80
 21
150
  0
LINE
  5
1B2
100
AcDbEntity
  8
画層0
100
AcDbLine
  6
CONTINUOUS
 10
80
 20
160
 11
80
 21
170
  0
LINE
  5
1B3
100
AcDbEntity
  8
画層0
100
AcDbLine
  6
CONTINUOUS
 10
69.5
 20
170
 11
69.5
 21
150
  0
LINE
  5
1B4
100
AcDbEntity
  8
画層0
100
AcDbLine
  6
CONTINUOUS
 10
70.5
 20
170
 11
70.5
 21
150
  0
LINE
  5
1B5
100
AcDbEntity
  8
画層0
100
AcDbLine
  6
CONTINUOUS
 10
64.5
 20
165
 11
64.5
 21
155
  0
LINE
  5
1B6
100
AcDbEntity
  8
画層0
100
AcDbLine
  6
CONTINUOUS
 10
65.5
 20
165
 11
65.5
 21
155
  0
LWPOLYLINE
  5
1B7
100
AcDbEntity
  8
画層0
100
AcDbPolyline
  6
CONTINUOUS
 90
     4
 70
     1
 10
69.5
  20
150
 10
70.5
  20
150
 10
70.5
  20
170
 10
69.5
  20
170
  0
SOLID
  5
1B8
100
AcDbEntity
  8
画層0
100
AcDbTrace
 10
69.5
 20
150
 30
0.0
 11
70.5
 21
150
 31
0.0
 12
69.5
 22
170
 32
0.0
 13
70.5
 23
170
 33
0.0
  0
LWPOLYLINE
  5
1B9
100
AcDbEntity
  8
画層0
100
AcDbPolyline
  6
CONTINUOUS
 90
     4
 70
     1
 10
64.5
  20
155
 10
65.5
  20
155
 10
65.5
  20
165
 10
64.5
  20
165
  0
SOLID
  5
1BA
100
AcDbEntity
  8
画層0
100
AcDbTrace
 10
64.5
 20
155
 30
0.0
 11
65.5
 21
155
 31
0.0
 12
64.5
 22
165
 32
0.0
 13
65.5
 23
165
 33
0.0
  0
LWPOLYLINE
  5
1BB
100
AcDbEntity
  8
画層0
100
AcDbPolyline
  6
CONTINUOUS
 90
     3
 70
     1
 10
80
  20
160
 10
75
  20
161.25
 10
75
  20
158.75
  0
SOLID
  5
1BC
100
AcDbEntity
  8
画層0
100
AcDbTrace
 10
80
 20
160
 30
0.0
 11
75
 21
161.25
 31
0.0
 12
75
 22
158.75
 32
0.0
 13
75
 23
158.75
 33
0.0
  0
LINE
  5
1BD
100
AcDbEntity
  8
画層0
100
AcDbLine
  6
CONTINUOUS
 10
50
 20
160
 11
60
 21
160
  0
LINE
  5
1BE
100
AcDbEntity
  8
画層0
100
AcDbLine
  6
CONTINUOUS
 10
80
 20
130
 11
80
 21
150
  0
LINE
  5
1BF
100
AcDbEntity
  8
画層0
100
AcDbLine
  6
CONTINUOUS
 10
80
 20
170
 11
80
 21
190
  0
CIRCLE
  5
1C0
100
AcDbEntity
  8
画層0
100
AcDbCircle
  6
CONTINUOUS
 10
80
 20
190
 40
2
  0
LINE
  5
1C1
100
AcDbEntity
  8
画層0
100
AcDbLine
  6
CONTINUOUS
 10
90
 20
190
 11
70
 21
190
  0
LINE
  5
1C2
100
AcDbEntity
  8
画層0
100
AcDbLine
  6
CONTINUOUS
 10
60
 20
80
 11
50
 21
80
  0
LINE
  5
1C3
100
AcDbEntity
  8
画層0
100
AcDbLine
  6
CONTINUOUS
 10
60
 20
40
 11
50
 21
40
  0
LINE
  5
1C4
100
AcDbEntity
  8
画層0
100
AcDbLine
  6
CONTINUOUS
 10
50
 20
160
 11
50
 21
40
  0
LINE
  5
1C5
100
AcDbEntity
  8
画層0
100
AcDbLine
  6
CONTINUOUS
 10
50
 20
100
 11
30
 21
100
  0
LINE
  5
1C6
100
AcDbEntity
  8
画層0
100
AcDbLine
  6
CONTINUOUS
 10
120
 20
130
 11
120
 21
140
  0
LINE
  5
1C7
100
AcDbEntity
  8
画層0
100
AcDbLine
  6
CONTINUOUS
 10
120
 20
140
 11
80
 21
140
  0
LINE
  5
1C8
100
AcDbEntity
  8
画層0
100
AcDbLine
  6
CONTINUOUS
 10
160
 20
70
 11
160
 21
90
  0
LINE
  5
1C9
100
AcDbEntity
  8
画層0
100
AcDbLine
  6
CONTINUOUS
 10
165
 20
75
 11
165
 21
85
  0
LINE
  5
1CA
100
AcDbEntity
  8
画層0
100
AcDbLine
  6
CONTINUOUS
 10
165
 20
80
 11
170
 21
80
  0
LINE
  5
1CB
100
AcDbEntity
  8
画層0
100
AcDbLine
  6
CONTINUOUS
 10
150
 20
87.5
 11
160
 21
87.5
  0
LINE
  5
1CC
100
AcDbEntity
  8
画層0
100
AcDbLine
  6
CONTINUOUS
 10
150
 20
72.5
 11
160
 21
72.5
  0
LINE
  5
1CD
100
AcDbEntity
  8
画層0
100
AcDbLine
  6
CONTINUOUS
 10
150
 20
80
 11
160
 21
80
  0
LWPOLYLINE
  5
1CE
100
AcDbEntity
  8
画層0
100
AcDbPolyline
  6
CONTINUOUS
 90
     3
 70
     1
 10
155
  20
78.75
 10
155
  20
81.25
 10
160
  20
80
  0
SOLID
  5
1CF
100
AcDbEntity
  8
画層0
100
AcDbTrace
 10
160
 20
80
 30
0.0
 11
155
 21
81.25
 31
0.0
 12
155
 22
78.75
 32
0.0
 13
155
 23
78.75
 33
0.0
  0
LINE
  5
1D0
100
AcDbEntity
  8
画層0
100
AcDbLine
  6
CONTINUOUS
 10
160.5
 20
90
 11
160.5
 21
70
  0
LINE
  5
1D1
100
AcDbEntity
  8
画層0
100
AcDbLine
  6
CONTINUOUS
 10
159.5
 20
90
 11
159.5
 21
70
  0
LINE
  5
1D2
100
AcDbEntity
  8
画層0
100
AcDbLine
  6
CONTINUOUS
 10
165.5
 20
85
 11
165.5
 21
75
  0
LINE
  5
1D3
100
AcDbEntity
  8
画層0
100
AcDbLine
  6
CONTINUOUS
 10
164.5
 20
85
 11
164.5
 21
75
  0
LWPOLYLINE
  5
1D4
100
AcDbEntity
  8
画層0
100
AcDbPolyline
  6
CONTINUOUS
 90
     4
 70
     1
 10
165.5
  20
75
 10
164.5
  20
75
 10
164.5
  20
85
 10
165.5
  20
85
  0
SOLID
  5
1D5
100
AcDbEntity
  8
画層0
100
AcDbTrace
 10
165.5
 20
75
 30
0.0
 11
164.5
 21
75
 31
0.0
 12
165.5
 22
85
 32
0.0
 13
164.5
 23
85
 33
0.0
  0
LWPOLYLINE
  5
1D6
100
AcDbEntity
  8
画層0
100
AcDbPolyline
  6
CONTINUOUS
 90
     4
 70
     1
 10
160.5
  20
70
 10
159.5
  20
70
 10
159.5
  20
90
 10
160.5
  20
90
  0
SOLID
  5
1D7
100
AcDbEntity
  8
画層0
100
AcDbTrace
 10
160.5
 20
70
 30
0.0
 11
159.5
 21
70
 31
0.0
 12
160.5
 22
90
 32
0.0
 13
159.5
 23
90
 33
0.0
  0
LINE
  5
1D8
100
AcDbEntity
  8
画層0
100
AcDbLine
  6
CONTINUOUS
 10
150
 20
72.5
 11
150
 21
70
  0
LINE
  5
1D9
100
AcDbEntity
  8
画層0
100
AcDbLine
  6
CONTINUOUS
 10
150
 20
87.5
 11
150
 21
90
  0
LINE
  5
1DA
100
AcDbEntity
  8
画層0
100
AcDbLine
  6
CONTINUOUS
 10
150
 20
72.5
 11
150
 21
80
  0
LINE
  5
1DB
100
AcDbEntity
  8
画層0
100
AcDbLine
  6
CONTINUOUS
 10
150
 20
60
 11
150
 21
70
  0
LINE
  5
1DC
100
AcDbEntity
  8
画層0
100
AcDbLine
  6
CONTINUOUS
 10
120
 20
60
 11
80
 21
60
  0
LINE
  5
1DD
100
AcDbEntity
  8
画層0
100
AcDbLine
  6
CONTINUOUS
 10
150
 20
120
 11
140
 21
120
  0
LINE
  5
1DE
100
AcDbEntity
  8
画層0
100
AcDbLine
  6
CONTINUOUS
 10
180
 20
80
 11
170
 21
80
  0
LINE
  5
1DF
100
AcDbEntity
  8
画層0
100
AcDbLine
  6
CONTINUOUS
 10
120
 20
110
 11
120
 21
20
  0
LINE
  5
1E0
100
AcDbEntity
  8
画層0
100
AcDbLine
  6
CONTINUOUS
 10
150
 20
90
 11
150
 21
190
  0
LINE
  5
1E1
100
AcDbEntity
  8
画層0
100
AcDbLine
  6
CONTINUOUS
 10
150
 20
60
 11
120
 21
60
  0
LINE
  5
1E2
100
AcDbEntity
  8
画層0
100
AcDbLine
  6
CONTINUOUS
 10
150
 20
120
 11
180
 21
120
  0
LINE
  5
1E3
100
AcDbEntity
  8
画層0
100
AcDbLine
  6
CONTINUOUS
 10
180
 20
80
 11
180
 21
120
  0
LINE
  5
1E4
100
AcDbEntity
  8
画層0
100
AcDbLine
  6
CONTINUOUS
 10
200
 20
100
 11
80
 21
100
  0
CIRCLE
  5
1E5
100
AcDbEntity
  8
画層0
100
AcDbCircle
  6
CONTINUOUS
 10
80
 20
140
 40
1
  0
SOLID
  5
1E6
100
AcDbEntity
  8
画層0
100
AcDbTrace
 10
80.9921147013145
 20
139.874666766436
 30
0.0
 11
81
 21
140
 31
0.0
 12
80.9921147013145
 22
140.125333233564
 32
0.0
 13
80.9921147013145
 23
140.125333233564
 33
0.0
  0
SOLID
  5
1E7
100
AcDbEntity
  8
画層0
100
AcDbTrace
 10
80.9921147013145
 20
139.874666766436
 30
0.0
 11
80.9921147013145
 21
140.125333233564
 31
0.0
 12
80.9685831611286
 22
140.248689887165
 32
0.0
 13
80.9685831611286
 23
140.248689887165
 33
0.0
  0
SOLID
  5
1E8
100
AcDbEntity
  8
画層0
100
AcDbTrace
 10
80.9921147013145
 20
139.874666766436
 30
0.0
 11
80.9685831611286
 21
140.248689887165
 31
0.0
 12
80.9297764858883
 22
140.368124552685
 32
0.0
 13
80.9297764858883
 23
140.368124552685
 33
0.0
  0
SOLID
  5
1E9
100
AcDbEntity
  8
画層0
100
AcDbTrace
 10
80.9921147013145
 20
139.874666766436
 30
0.0
 11
80.9297764858883
 21
140.368124552685
 31
0.0
 12
80.8763066800439
 22
140.481753674102
 32
0.0
 13
80.8763066800439
 23
140.481753674102
 33
0.0
  0
SOLID
  5
1EA
100
AcDbEntity
  8
画層0
100
AcDbTrace
 10
80.9921147013145
 20
139.874666766436
 30
0.0
 11
80.8763066800439
 21
140.481753674102
 31
0.0
 12
80.8090169943749
 22
140.587785252292
 32
0.0
 13
80.8090169943749
 23
140.587785252292
 33
0.0
  0
SOLID
  5
1EB
100
AcDbEntity
  8
画層0
100
AcDbTrace
 10
80.9921147013145
 20
139.874666766436
 30
0.0
 11
80.8090169943749
 21
140.587785252292
 31
0.0
 12
80.7289686274214
 22
140.684547105929
 32
0.0
 13
80.7289686274214
 23
140.684547105929
 33
0.0
  0
SOLID
  5
1EC
100
AcDbEntity
  8
画層0
100
AcDbTrace
 10
80.9921147013145
 20
139.874666766436
 30
0.0
 11
80.7289686274214
 21
140.684547105929
 31
0.0
 12
80.6374239897487
 22
140.770513242776
 32
0.0
 13
80.6374239897487
 23
140.770513242776
 33
0.0
  0
SOLID
  5
1ED
100
AcDbEntity
  8
画層0
100
AcDbTrace
 10
80.9921147013145
 20
139.874666766436
 30
0.0
 11
80.6374239897487
 21
140.770513242776
 31
0.0
 12
80.535826794979
 22
140.844327925502
 32
0.0
 13
80.535826794979
 23
140.844327925502
 33
0.0
  0
SOLID
  5
1EE
100
AcDbEntity
  8
画層0
100
AcDbTrace
 10
80.9921147013145
 20
139.874666766436
 30
0.0
 11
80.535826794979
 21
140.844327925502
 31
0.0
 12
80.4257792915651
 22
140.904827052466
 32
0.0
 13
80.4257792915651
 23
140.904827052466
 33
0.0
  0
SOLID
  5
1EF
100
AcDbEntity
  8
画層0
100
AcDbTrace
 10
80.9921147013145
 20
139.874666766436
 30
0.0
 11
80.4257792915651
 21
140.904827052466
 31
0.0
 12
80.3090169943749
 22
140.951056516295
 32
0.0
 13
80.3090169943749
 23
140.951056516295
 33
0.0
  0
SOLID
  5
1F0
100
AcDbEntity
  8
画層0
100
AcDbTrace
 10
80.9921147013145
 20
139.874666766436
 30
0.0
 11
80.3090169943749
 21
140.951056516295
 31
0.0
 12
80.1873813145857
 22
140.982287250729
 32
0.0
 13
80.1873813145857
 23
140.982287250729
 33
0.0
  0
SOLID
  5
1F1
100
AcDbEntity
  8
画層0
100
AcDbTrace
 10
80.9921147013145
 20
139.874666766436
 30
0.0
 11
80.1873813145857
 21
140.982287250729
 31
0.0
 12
80.0627905195293
 22
140.998026728428
 32
0.0
 13
80.0627905195293
 23
140.998026728428
 33
0.0
  0
SOLID
  5
1F2
100
AcDbEntity
  8
画層0
100
AcDbTrace
 10
80.9921147013145
 20
139.874666766436
 30
0.0
 11
80.0627905195293
 21
140.998026728428
 31
0.0
 12
79.9372094804707
 22
140.998026728428
 32
0.0
 13
79.9372094804707
 23
140.998026728428
 33
0.0
  0
SOLID
  5
1F3
100
AcDbEntity
  8
画層0
100
AcDbTrace
 10
80.9921147013145
 20
139.874666766436
 30
0.0
 11
79.9372094804707
 21
140.998026728428
 31
0.0
 12
79.8126186854143
 22
140.982287250729
 32
0.0
 13
79.8126186854143
 23
140.982287250729
 33
0.0
  0
SOLID
  5
1F4
100
AcDbEntity
  8
画層0
100
AcDbTrace
 10
80.9921147013145
 20
139.874666766436
 30
0.0
 11
79.8126186854143
 21
140.982287250729
 31
0.0
 12
79.6909830056251
 22
140.951056516295
 32
0.0
 13
79.6909830056251
 23
140.951056516295
 33
0.0
  0
SOLID
  5
1F5
100
AcDbEntity
  8
画層0
100
AcDbTrace
 10
80.9921147013145
 20
139.874666766436
 30
0.0
 11
79.6909830056251
 21
140.951056516295
 31
0.0
 12
79.5742207084349
 22
140.904827052466
 32
0.0
 13
79.5742207084349
 23
140.904827052466
 33
0.0
  0
SOLID
  5
1F6
100
AcDbEntity
  8
画層0
100
AcDbTrace
 10
80.9921147013145
 20
139.874666766436
 30
0.0
 11
79.5742207084349
 21
140.904827052466
 31
0.0
 12
79.464173205021
 22
140.844327925502
 32
0.0
 13
79.464173205021
 23
140.844327925502
 33
0.0
  0
SOLID
  5
1F7
100
AcDbEntity
  8
画層0
100
AcDbTrace
 10
80.9921147013145
 20
139.874666766436
 30
0.0
 11
79.464173205021
 21
140.844327925502
 31
0.0
 12
79.3625760102513
 22
140.770513242776
 32
0.0
 13
79.3625760102513
 23
140.770513242776
 33
0.0
  0
SOLID
  5
1F8
100
AcDbEntity
  8
画層0
100
AcDbTrace
 10
80.9921147013145
 20
139.874666766436
 30
0.0
 11
79.3625760102513
 21
140.770513242776
 31
0.0
 12
79.2710313725786
 22
140.684547105929
 32
0.0
 13
79.2710313725786
 23
140.684547105929
 33
0.0
  0
SOLID
  5
1F9
100
AcDbEntity
  8
画層0
100
AcDbTrace
 10
80.9921147013145
 20
139.874666766436
 30
0.0
 11
79.2710313725786
 21
140.684547105929
 31
0.0
 12
79.1909830056251
 22
140.587785252292
 32
0.0
 13
79.1909830056251
 23
140.587785252292
 33
0.0
  0
SOLID
  5
1FA
100
AcDbEntity
  8
画層0
100
AcDbTrace
 10
80.9921147013145
 20
139.874666766436
 30
0.0
 11
79.1909830056251
 21
140.587785252292
 31
0.0
 12
79.1236933199561
 22
140.481753674102
 32
0.0
 13
79.1236933199561
 23
140.481753674102
 33
0.0
  0
SOLID
  5
1FB
100
AcDbEntity
  8
画層0
100
AcDbTrace
 10
80.9921147013145
 20
139.874666766436
 30
0.0
 11
79.1236933199561
 21
140.481753674102
 31
0.0
 12
79.0702235141117
 22
140.368124552685
 32
0.0
 13
79.0702235141117
 23
140.368124552685
 33
0.0
  0
SOLID
  5
1FC
100
AcDbEntity
  8
画層0
100
AcDbTrace
 10
80.9921147013145
 20
139.874666766436
 30
0.0
 11
79.0702235141117
 21
140.368124552685
 31
0.0
 12
79.0314168388714
 22
140.248689887165
 32
0.0
 13
79.0314168388714
 23
140.248689887165
 33
0.0
  0
SOLID
  5
1FD
100
AcDbEntity
  8
画層0
100
AcDbTrace
 10
80.9921147013145
 20
139.874666766436
 30
0.0
 11
79.0314168388714
 21
140.248689887165
 31
0.0
 12
79.0078852986855
 22
140.125333233564
 32
0.0
 13
79.0078852986855
 23
140.125333233564
 33
0.0
  0
SOLID
  5
1FE
100
AcDbEntity
  8
画層0
100
AcDbTrace
 10
80.9921147013145
 20
139.874666766436
 30
0.0
 11
79.0078852986855
 21
140.125333233564
 31
0.0
 12
79
 22
140
 32
0.0
 13
79
 23
140
 33
0.0
  0
SOLID
  5
1FF
100
AcDbEntity
  8
画層0
100
AcDbTrace
 10
80.9921147013145
 20
139.874666766436
 30
0.0
 11
79
 21
140
 31
0.0
 12
79.0078852986855
 22
139.874666766436
 32
0.0
 13
79.0078852986855
 23
139.874666766436
 33
0.0
  0
SOLID
  5
200
100
AcDbEntity
  8
画層0
100
AcDbTrace
 10
80.9921147013145
 20
139.874666766436
 30
0.0
 11
79.0078852986855
 21
139.874666766436
 31
0.0
 12
79.0314168388714
 22
139.751310112835
 32
0.0
 13
79.0314168388714
 23
139.751310112835
 33
0.0
  0
SOLID
  5
201
100
AcDbEntity
  8
画層0
100
AcDbTrace
 10
80.9921147013145
 20
139.874666766436
 30
0.0
 11
79.0314168388714
 21
139.751310112835
 31
0.0
 12
79.0702235141117
 22
139.631875447315
 32
0.0
 13
79.0702235141117
 23
139.631875447315
 33
0.0
  0
SOLID
  5
202
100
AcDbEntity
  8
画層0
100
AcDbTrace
 10
80.9921147013145
 20
139.874666766436
 30
0.0
 11
79.0702235141117
 21
139.631875447315
 31
0.0
 12
79.1236933199561
 22
139.518246325898
 32
0.0
 13
79.1236933199561
 23
139.518246325898
 33
0.0
  0
SOLID
  5
203
100
AcDbEntity
  8
画層0
100
AcDbTrace
 10
80.9921147013145
 20
139.874666766436
 30
0.0
 11
79.1236933199561
 21
139.518246325898
 31
0.0
 12
79.1909830056251
 22
139.412214747708
 32
0.0
 13
79.1909830056251
 23
139.412214747708
 33
0.0
  0
SOLID
  5
204
100
AcDbEntity
  8
画層0
100
AcDbTrace
 10
80.9921147013145
 20
139.874666766436
 30
0.0
 11
79.1909830056251
 21
139.412214747708
 31
0.0
 12
79.2710313725786
 22
139.315452894071
 32
0.0
 13
79.2710313725786
 23
139.315452894071
 33
0.0
  0
SOLID
  5
205
100
AcDbEntity
  8
画層0
100
AcDbTrace
 10
80.9921147013145
 20
139.874666766436
 30
0.0
 11
79.2710313725786
 21
139.315452894071
 31
0.0
 12
79.3625760102513
 22
139.229486757224
 32
0.0
 13
79.3625760102513
 23
139.229486757224
 33
0.0
  0
SOLID
  5
206
100
AcDbEntity
  8
画層0
100
AcDbTrace
 10
80.9921147013145
 20
139.874666766436
 30
0.0
 11
79.3625760102513
 21
139.229486757224
 31
0.0
 12
79.464173205021
 22
139.155672074498
 32
0.0
 13
79.464173205021
 23
139.155672074498
 33
0.0
  0
SOLID
  5
207
100
AcDbEntity
  8
画層0
100
AcDbTrace
 10
80.9921147013145
 20
139.874666766436
 30
0.0
 11
79.464173205021
 21
139.155672074498
 31
0.0
 12
79.5742207084349
 22
139.095172947534
 32
0.0
 13
79.5742207084349
 23
139.095172947534
 33
0.0
  0
SOLID
  5
208
100
AcDbEntity
  8
画層0
100
AcDbTrace
 10
80.9921147013145
 20
139.874666766436
 30
0.0
 11
79.5742207084349
 21
139.095172947534
 31
0.0
 12
79.6909830056251
 22
139.048943483705
 32
0.0
 13
79.6909830056251
 23
139.048943483705
 33
0.0
  0
SOLID
  5
209
100
AcDbEntity
  8
画層0
100
AcDbTrace
 10
80.9921147013145
 20
139.874666766436
 30
0.0
 11
79.6909830056251
 21
139.048943483705
 31
0.0
 12
79.8126186854143
 22
139.017712749271
 32
0.0
 13
79.8126186854143
 23
139.017712749271
 33
0.0
  0
SOLID
  5
20A
100
AcDbEntity
  8
画層0
100
AcDbTrace
 10
80.9921147013145
 20
139.874666766436
 30
0.0
 11
79.8126186854143
 21
139.017712749271
 31
0.0
 12
79.9372094804707
 22
139.001973271572
 32
0.0
 13
79.9372094804707
 23
139.001973271572
 33
0.0
  0
SOLID
  5
20B
100
AcDbEntity
  8
画層0
100
AcDbTrace
 10
80.9921147013145
 20
139.874666766436
 30
0.0
 11
79.9372094804707
 21
139.001973271572
 31
0.0
 12
80.0627905195293
 22
139.001973271572
 32
0.0
 13
80.0627905195293
 23
139.001973271572
 33
0.0
  0
SOLID
  5
20C
100
AcDbEntity
  8
画層0
100
AcDbTrace
 10
80.9921147013145
 20
139.874666766436
 30
0.0
 11
80.0627905195293
 21
139.001973271572
 31
0.0
 12
80.1873813145857
 22
139.017712749271
 32
0.0
 13
80.1873813145857
 23
139.017712749271
 33
0.0
  0
SOLID
  5
20D
100
AcDbEntity
  8
画層0
100
AcDbTrace
 10
80.9921147013145
 20
139.874666766436
 30
0.0
 11
80.1873813145857
 21
139.017712749271
 31
0.0
 12
80.309016994375
 22
139.048943483705
 32
0.0
 13
80.309016994375
 23
139.048943483705
 33
0.0
  0
SOLID
  5
20E
100
AcDbEntity
  8
画層0
100
AcDbTrace
 10
80.9921147013145
 20
139.874666766436
 30
0.0
 11
80.309016994375
 21
139.048943483705
 31
0.0
 12
80.4257792915651
 22
139.095172947534
 32
0.0
 13
80.4257792915651
 23
139.095172947534
 33
0.0
  0
SOLID
  5
20F
100
AcDbEntity
  8
画層0
100
AcDbTrace
 10
80.9921147013145
 20
139.874666766436
 30
0.0
 11
80.4257792915651
 21
139.095172947534
 31
0.0
 12
80.535826794979
 22
139.155672074498
 32
0.0
 13
80.535826794979
 23
139.155672074498
 33
0.0
  0
SOLID
  5
210
100
AcDbEntity
  8
画層0
100
AcDbTrace
 10
80.9921147013145
 20
139.874666766436
 30
0.0
 11
80.535826794979
 21
139.155672074498
 31
0.0
 12
80.6374239897487
 22
139.229486757224
 32
0.0
 13
80.6374239897487
 23
139.229486757224
 33
0.0
  0
SOLID
  5
211
100
AcDbEntity
  8
画層0
100
AcDbTrace
 10
80.9921147013145
 20
139.874666766436
 30
0.0
 11
80.6374239897487
 21
139.229486757224
 31
0.0
 12
80.7289686274214
 22
139.315452894071
 32
0.0
 13
80.7289686274214
 23
139.315452894071
 33
0.0
  0
SOLID
  5
212
100
AcDbEntity
  8
画層0
100
AcDbTrace
 10
80.9921147013145
 20
139.874666766436
 30
0.0
 11
80.7289686274214
 21
139.315452894071
 31
0.0
 12
80.8090169943749
 22
139.412214747708
 32
0.0
 13
80.8090169943749
 23
139.412214747708
 33
0.0
  0
SOLID
  5
213
100
AcDbEntity
  8
画層0
100
AcDbTrace
 10
80.9921147013145
 20
139.874666766436
 30
0.0
 11
80.8090169943749
 21
139.412214747708
 31
0.0
 12
80.8763066800439
 22
139.518246325898
 32
0.0
 13
80.8763066800439
 23
139.518246325898
 33
0.0
  0
SOLID
  5
214
100
AcDbEntity
  8
画層0
100
AcDbTrace
 10
80.9921147013145
 20
139.874666766436
 30
0.0
 11
80.8763066800439
 21
139.518246325898
 31
0.0
 12
80.9297764858883
 22
139.631875447315
 32
0.0
 13
80.9297764858883
 23
139.631875447315
 33
0.0
  0
SOLID
  5
215
100
AcDbEntity
  8
画層0
100
AcDbTrace
 10
80.9921147013145
 20
139.874666766436
 30
0.0
 11
80.9297764858883
 21
139.631875447315
 31
0.0
 12
80.9685831611286
 22
139.751310112835
 32
0.0
 13
80.9685831611286
 23
139.751310112835
 33
0.0
  0
CIRCLE
  5
216
100
AcDbEntity
  8
画層0
100
AcDbCircle
  6
CONTINUOUS
 10
80
 20
100
 40
1
  0
SOLID
  5
217
100
AcDbEntity
  8
画層0
100
AcDbTrace
 10
80.9921147013145
 20
99.8746667664357
 30
0.0
 11
81
 21
100
 31
0.0
 12
80.9921147013145
 22
100.125333233564
 32
0.0
 13
80.9921147013145
 23
100.125333233564
 33
0.0
  0
SOLID
  5
218
100
AcDbEntity
  8
画層0
100
AcDbTrace
 10
80.9921147013145
 20
99.8746667664357
 30
0.0
 11
80.9921147013145
 21
100.125333233564
 31
0.0
 12
80.9685831611286
 22
100.248689887165
 32
0.0
 13
80.9685831611286
 23
100.248689887165
 33
0.0
  0
SOLID
  5
219
100
AcDbEntity
  8
画層0
100
AcDbTrace
 10
80.9921147013145
 20
99.8746667664357
 30
0.0
 11
80.9685831611286
 21
100.248689887165
 31
0.0
 12
80.9297764858883
 22
100.368124552685
 32
0.0
 13
80.9297764858883
 23
100.368124552685
 33
0.0
  0
SOLID
  5
21A
100
AcDbEntity
  8
画層0
100
AcDbTrace
 10
80.9921147013145
 20
99.8746667664357
 30
0.0
 11
80.9297764858883
 21
100.368124552685
 31
0.0
 12
80.8763066800439
 22
100.481753674102
 32
0.0
 13
80.8763066800439
 23
100.481753674102
 33
0.0
  0
SOLID
  5
21B
100
AcDbEntity
  8
画層0
100
AcDbTrace
 10
80.9921147013145
 20
99.8746667664357
 30
0.0
 11
80.8763066800439
 21
100.481753674102
 31
0.0
 12
80.8090169943749
 22
100.587785252292
 32
0.0
 13
80.8090169943749
 23
100.587785252292
 33
0.0
  0
SOLID
  5
21C
100
AcDbEntity
  8
画層0
100
AcDbTrace
 10
80.9921147013145
 20
99.8746667664357
 30
0.0
 11
80.8090169943749
 21
100.587785252292
 31
0.0
 12
80.7289686274214
 22
100.684547105929
 32
0.0
 13
80.7289686274214
 23
100.684547105929
 33
0.0
  0
SOLID
  5
21D
100
AcDbEntity
  8
画層0
100
AcDbTrace
 10
80.9921147013145
 20
99.8746667664357
 30
0.0
 11
80.7289686274214
 21
100.684547105929
 31
0.0
 12
80.6374239897487
 22
100.770513242776
 32
0.0
 13
80.6374239897487
 23
100.770513242776
 33
0.0
  0
SOLID
  5
21E
100
AcDbEntity
  8
画層0
100
AcDbTrace
 10
80.9921147013145
 20
99.8746667664357
 30
0.0
 11
80.6374239897487
 21
100.770513242776
 31
0.0
 12
80.535826794979
 22
100.844327925502
 32
0.0
 13
80.535826794979
 23
100.844327925502
 33
0.0
  0
SOLID
  5
21F
100
AcDbEntity
  8
画層0
100
AcDbTrace
 10
80.9921147013145
 20
99.8746667664357
 30
0.0
 11
80.535826794979
 21
100.844327925502
 31
0.0
 12
80.4257792915651
 22
100.904827052466
 32
0.0
 13
80.4257792915651
 23
100.904827052466
 33
0.0
  0
SOLID
  5
220
100
AcDbEntity
  8
画層0
100
AcDbTrace
 10
80.9921147013145
 20
99.8746667664357
 30
0.0
 11
80.4257792915651
 21
100.904827052466
 31
0.0
 12
80.3090169943749
 22
100.951056516295
 32
0.0
 13
80.3090169943749
 23
100.951056516295
 33
0.0
  0
SOLID
  5
221
100
AcDbEntity
  8
画層0
100
AcDbTrace
 10
80.9921147013145
 20
99.8746667664357
 30
0.0
 11
80.3090169943749
 21
100.951056516295
 31
0.0
 12
80.1873813145857
 22
100.982287250729
 32
0.0
 13
80.1873813145857
 23
100.982287250729
 33
0.0
  0
SOLID
  5
222
100
AcDbEntity
  8
画層0
100
AcDbTrace
 10
80.9921147013145
 20
99.8746667664357
 30
0.0
 11
80.1873813145857
 21
100.982287250729
 31
0.0
 12
80.0627905195293
 22
100.998026728428
 32
0.0
 13
80.0627905195293
 23
100.998026728428
 33
0.0
  0
SOLID
  5
223
100
AcDbEntity
  8
画層0
100
AcDbTrace
 10
80.9921147013145
 20
99.8746667664357
 30
0.0
 11
80.0627905195293
 21
100.998026728428
 31
0.0
 12
79.9372094804707
 22
100.998026728428
 32
0.0
 13
79.9372094804707
 23
100.998026728428
 33
0.0
  0
SOLID
  5
224
100
AcDbEntity
  8
画層0
100
AcDbTrace
 10
80.9921147013145
 20
99.8746667664357
 30
0.0
 11
79.9372094804707
 21
100.998026728428
 31
0.0
 12
79.8126186854143
 22
100.982287250729
 32
0.0
 13
79.8126186854143
 23
100.982287250729
 33
0.0
  0
SOLID
  5
225
100
AcDbEntity
  8
画層0
100
AcDbTrace
 10
80.9921147013145
 20
99.8746667664357
 30
0.0
 11
79.8126186854143
 21
100.982287250729
 31
0.0
 12
79.6909830056251
 22
100.951056516295
 32
0.0
 13
79.6909830056251
 23
100.951056516295
 33
0.0
  0
SOLID
  5
226
100
AcDbEntity
  8
画層0
100
AcDbTrace
 10
80.9921147013145
 20
99.8746667664357
 30
0.0
 11
79.6909830056251
 21
100.951056516295
 31
0.0
 12
79.5742207084349
 22
100.904827052466
 32
0.0
 13
79.5742207084349
 23
100.904827052466
 33
0.0
  0
SOLID
  5
227
100
AcDbEntity
  8
画層0
100
AcDbTrace
 10
80.9921147013145
 20
99.8746667664357
 30
0.0
 11
79.5742207084349
 21
100.904827052466
 31
0.0
 12
79.464173205021
 22
100.844327925502
 32
0.0
 13
79.464173205021
 23
100.844327925502
 33
0.0
  0
SOLID
  5
228
100
AcDbEntity
  8
画層0
100
AcDbTrace
 10
80.9921147013145
 20
99.8746667664357
 30
0.0
 11
79.464173205021
 21
100.844327925502
 31
0.0
 12
79.3625760102513
 22
100.770513242776
 32
0.0
 13
79.3625760102513
 23
100.770513242776
 33
0.0
  0
SOLID
  5
229
100
AcDbEntity
  8
画層0
100
AcDbTrace
 10
80.9921147013145
 20
99.8746667664357
 30
0.0
 11
79.3625760102513
 21
100.770513242776
 31
0.0
 12
79.2710313725786
 22
100.684547105929
 32
0.0
 13
79.2710313725786
 23
100.684547105929
 33
0.0
  0
SOLID
  5
22A
100
AcDbEntity
  8
画層0
100
AcDbTrace
 10
80.9921147013145
 20
99.8746667664357
 30
0.0
 11
79.2710313725786
 21
100.684547105929
 31
0.0
 12
79.1909830056251
 22
100.587785252292
 32
0.0
 13
79.1909830056251
 23
100.587785252292
 33
0.0
  0
SOLID
  5
22B
100
AcDbEntity
  8
画層0
100
AcDbTrace
 10
80.9921147013145
 20
99.8746667664357
 30
0.0
 11
79.1909830056251
 21
100.587785252292
 31
0.0
 12
79.1236933199561
 22
100.481753674102
 32
0.0
 13
79.1236933199561
 23
100.481753674102
 33
0.0
  0
SOLID
  5
22C
100
AcDbEntity
  8
画層0
100
AcDbTrace
 10
80.9921147013145
 20
99.8746667664357
 30
0.0
 11
79.1236933199561
 21
100.481753674102
 31
0.0
 12
79.0702235141117
 22
100.368124552685
 32
0.0
 13
79.0702235141117
 23
100.368124552685
 33
0.0
  0
SOLID
  5
22D
100
AcDbEntity
  8
画層0
100
AcDbTrace
 10
80.9921147013145
 20
99.8746667664357
 30
0.0
 11
79.0702235141117
 21
100.368124552685
 31
0.0
 12
79.0314168388714
 22
100.248689887165
 32
0.0
 13
79.0314168388714
 23
100.248689887165
 33
0.0
  0
SOLID
  5
22E
100
AcDbEntity
  8
画層0
100
AcDbTrace
 10
80.9921147013145
 20
99.8746667664357
 30
0.0
 11
79.0314168388714
 21
100.248689887165
 31
0.0
 12
79.0078852986855
 22
100.125333233564
 32
0.0
 13
79.0078852986855
 23
100.125333233564
 33
0.0
  0
SOLID
  5
22F
100
AcDbEntity
  8
画層0
100
AcDbTrace
 10
80.9921147013145
 20
99.8746667664357
 30
0.0
 11
79.0078852986855
 21
100.125333233564
 31
0.0
 12
79
 22
100
 32
0.0
 13
79
 23
100
 33
0.0
  0
SOLID
  5
230
100
AcDbEntity
  8
画層0
100
AcDbTrace
 10
80.9921147013145
 20
99.8746667664357
 30
0.0
 11
79
 21
100
 31
0.0
 12
79.0078852986855
 22
99.8746667664357
 32
0.0
 13
79.0078852986855
 23
99.8746667664357
 33
0.0
  0
SOLID
  5
231
100
AcDbEntity
  8
画層0
100
AcDbTrace
 10
80.9921147013145
 20
99.8746667664357
 30
0.0
 11
79.0078852986855
 21
99.8746667664357
 31
0.0
 12
79.0314168388714
 22
99.7513101128351
 32
0.0
 13
79.0314168388714
 23
99.7513101128351
 33
0.0
  0
SOLID
  5
232
100
AcDbEntity
  8
画層0
100
AcDbTrace
 10
80.9921147013145
 20
99.8746667664357
 30
0.0
 11
79.0314168388714
 21
99.7513101128351
 31
0.0
 12
79.0702235141117
 22
99.6318754473153
 32
0.0
 13
79.0702235141117
 23
99.6318754473153
 33
0.0
  0
SOLID
  5
233
100
AcDbEntity
  8
画層0
100
AcDbTrace
 10
80.9921147013145
 20
99.8746667664357
 30
0.0
 11
79.0702235141117
 21
99.6318754473153
 31
0.0
 12
79.1236933199561
 22
99.5182463258983
 32
0.0
 13
79.1236933199561
 23
99.5182463258983
 33
0.0
  0
SOLID
  5
234
100
AcDbEntity
  8
画層0
100
AcDbTrace
 10
80.9921147013145
 20
99.8746667664357
 30
0.0
 11
79.1236933199561
 21
99.5182463258983
 31
0.0
 12
79.1909830056251
 22
99.4122147477075
 32
0.0
 13
79.1909830056251
 23
99.4122147477075
 33
0.0
  0
SOLID
  5
235
100
AcDbEntity
  8
画層0
100
AcDbTrace
 10
80.9921147013145
 20
99.8746667664357
 30
0.0
 11
79.1909830056251
 21
99.4122147477075
 31
0.0
 12
79.2710313725786
 22
99.3154528940713
 32
0.0
 13
79.2710313725786
 23
99.3154528940713
 33
0.0
  0
SOLID
  5
236
100
AcDbEntity
  8
画層0
100
AcDbTrace
 10
80.9921147013145
 20
99.8746667664357
 30
0.0
 11
79.2710313725786
 21
99.3154528940713
 31
0.0
 12
79.3625760102513
 22
99.2294867572242
 32
0.0
 13
79.3625760102513
 23
99.2294867572242
 33
0.0
  0
SOLID
  5
237
100
AcDbEntity
  8
画層0
100
AcDbTrace
 10
80.9921147013145
 20
99.8746667664357
 30
0.0
 11
79.3625760102513
 21
99.2294867572242
 31
0.0
 12
79.464173205021
 22
99.155672074498
 32
0.0
 13
79.464173205021
 23
99.155672074498
 33
0.0
  0
SOLID
  5
238
100
AcDbEntity
  8
画層0
100
AcDbTrace
 10
80.9921147013145
 20
99.8746667664357
 30
0.0
 11
79.464173205021
 21
99.155672074498
 31
0.0
 12
79.5742207084349
 22
99.095172947534
 32
0.0
 13
79.5742207084349
 23
99.095172947534
 33
0.0
  0
SOLID
  5
239
100
AcDbEntity
  8
画層0
100
AcDbTrace
 10
80.9921147013145
 20
99.8746667664357
 30
0.0
 11
79.5742207084349
 21
99.095172947534
 31
0.0
 12
79.6909830056251
 22
99.0489434837048
 32
0.0
 13
79.6909830056251
 23
99.0489434837048
 33
0.0
  0
SOLID
  5
23A
100
AcDbEntity
  8
画層0
100
AcDbTrace
 10
80.9921147013145
 20
99.8746667664357
 30
0.0
 11
79.6909830056251
 21
99.0489434837048
 31
0.0
 12
79.8126186854143
 22
99.0177127492713
 32
0.0
 13
79.8126186854143
 23
99.0177127492713
 33
0.0
  0
SOLID
  5
23B
100
AcDbEntity
  8
画層0
100
AcDbTrace
 10
80.9921147013145
 20
99.8746667664357
 30
0.0
 11
79.8126186854143
 21
99.0177127492713
 31
0.0
 12
79.9372094804707
 22
99.0019732715717
 32
0.0
 13
79.9372094804707
 23
99.0019732715717
 33
0.0
  0
SOLID
  5
23C
100
AcDbEntity
  8
画層0
100
AcDbTrace
 10
80.9921147013145
 20
99.8746667664357
 30
0.0
 11
79.9372094804707
 21
99.0019732715717
 31
0.0
 12
80.0627905195293
 22
99.0019732715717
 32
0.0
 13
80.0627905195293
 23
99.0019732715717
 33
0.0
  0
SOLID
  5
23D
100
AcDbEntity
  8
画層0
100
AcDbTrace
 10
80.9921147013145
 20
99.8746667664357
 30
0.0
 11
80.0627905195293
 21
99.0019732715717
 31
0.0
 12
80.1873813145857
 22
99.0177127492713
 32
0.0
 13
80.1873813145857
 23
99.0177127492713
 33
0.0
  0
SOLID
  5
23E
100
AcDbEntity
  8
画層0
100
AcDbTrace
 10
80.9921147013145
 20
99.8746667664357
 30
0.0
 11
80.1873813145857
 21
99.0177127492713
 31
0.0
 12
80.309016994375
 22
99.0489434837048
 32
0.0
 13
80.309016994375
 23
99.0489434837048
 33
0.0
  0
SOLID
  5
23F
100
AcDbEntity
  8
画層0
100
AcDbTrace
 10
80.9921147013145
 20
99.8746667664357
 30
0.0
 11
80.309016994375
 21
99.0489434837048
 31
0.0
 12
80.4257792915651
 22
99.095172947534
 32
0.0
 13
80.4257792915651
 23
99.095172947534
 33
0.0
  0
SOLID
  5
240
100
AcDbEntity
  8
画層0
100
AcDbTrace
 10
80.9921147013145
 20
99.8746667664357
 30
0.0
 11
80.4257792915651
 21
99.095172947534
 31
0.0
 12
80.535826794979
 22
99.155672074498
 32
0.0
 13
80.535826794979
 23
99.155672074498
 33
0.0
  0
SOLID
  5
241
100
AcDbEntity
  8
画層0
100
AcDbTrace
 10
80.9921147013145
 20
99.8746667664357
 30
0.0
 11
80.535826794979
 21
99.155672074498
 31
0.0
 12
80.6374239897487
 22
99.2294867572242
 32
0.0
 13
80.6374239897487
 23
99.2294867572242
 33
0.0
  0
SOLID
  5
242
100
AcDbEntity
  8
画層0
100
AcDbTrace
 10
80.9921147013145
 20
99.8746667664357
 30
0.0
 11
80.6374239897487
 21
99.2294867572242
 31
0.0
 12
80.7289686274214
 22
99.3154528940713
 32
0.0
 13
80.7289686274214
 23
99.3154528940713
 33
0.0
  0
SOLID
  5
243
100
AcDbEntity
  8
画層0
100
AcDbTrace
 10
80.9921147013145
 20
99.8746667664357
 30
0.0
 11
80.7289686274214
 21
99.3154528940713
 31
0.0
 12
80.8090169943749
 22
99.4122147477075
 32
0.0
 13
80.8090169943749
 23
99.4122147477075
 33
0.0
  0
SOLID
  5
244
100
AcDbEntity
  8
画層0
100
AcDbTrace
 10
80.9921147013145
 20
99.8746667664357
 30
0.0
 11
80.8090169943749
 21
99.4122147477075
 31
0.0
 12
80.8763066800439
 22
99.5182463258983
 32
0.0
 13
80.8763066800439
 23
99.5182463258983
 33
0.0
  0
SOLID
  5
245
100
AcDbEntity
  8
画層0
100
AcDbTrace
 10
80.9921147013145
 20
99.8746667664357
 30
0.0
 11
80.8763066800439
 21
99.5182463258983
 31
0.0
 12
80.9297764858883
 22
99.6318754473153
 32
0.0
 13
80.9297764858883
 23
99.6318754473153
 33
0.0
  0
SOLID
  5
246
100
AcDbEntity
  8
画層0
100
AcDbTrace
 10
80.9921147013145
 20
99.8746667664357
 30
0.0
 11
80.9297764858883
 21
99.6318754473153
 31
0.0
 12
80.9685831611286
 22
99.7513101128352
 32
0.0
 13
80.9685831611286
 23
99.7513101128352
 33
0.0
  0
CIRCLE
  5
247
100
AcDbEntity
  8
画層0
100
AcDbCircle
  6
CONTINUOUS
 10
80
 20
60
 40
1
  0
SOLID
  5
248
100
AcDbEntity
  8
画層0
100
AcDbTrace
 10
80.9921147013145
 20
59.8746667664357
 30
0.0
 11
81
 21
60
 31
0.0
 12
80.9921147013145
 22
60.1253332335643
 32
0.0
 13
80.9921147013145
 23
60.1253332335643
 33
0.0
  0
SOLID
  5
249
100
AcDbEntity
  8
画層0
100
AcDbTrace
 10
80.9921147013145
 20
59.8746667664357
 30
0.0
 11
80.9921147013145
 21
60.1253332335643
 31
0.0
 12
80.9685831611286
 22
60.2486898871649
 32
0.0
 13
80.9685831611286
 23
60.2486898871649
 33
0.0
  0
SOLID
  5
24A
100
AcDbEntity
  8
画層0
100
AcDbTrace
 10
80.9921147013145
 20
59.8746667664357
 30
0.0
 11
80.9685831611286
 21
60.2486898871649
 31
0.0
 12
80.9297764858883
 22
60.3681245526847
 32
0.0
 13
80.9297764858883
 23
60.3681245526847
 33
0.0
  0
SOLID
  5
24B
100
AcDbEntity
  8
画層0
100
AcDbTrace
 10
80.9921147013145
 20
59.8746667664357
 30
0.0
 11
80.9297764858883
 21
60.3681245526847
 31
0.0
 12
80.8763066800439
 22
60.4817536741017
 32
0.0
 13
80.8763066800439
 23
60.4817536741017
 33
0.0
  0
SOLID
  5
24C
100
AcDbEntity
  8
画層0
100
AcDbTrace
 10
80.9921147013145
 20
59.8746667664357
 30
0.0
 11
80.8763066800439
 21
60.4817536741017
 31
0.0
 12
80.8090169943749
 22
60.5877852522925
 32
0.0
 13
80.8090169943749
 23
60.5877852522925
 33
0.0
  0
SOLID
  5
24D
100
AcDbEntity
  8
画層0
100
AcDbTrace
 10
80.9921147013145
 20
59.8746667664357
 30
0.0
 11
80.8090169943749
 21
60.5877852522925
 31
0.0
 12
80.7289686274214
 22
60.6845471059287
 32
0.0
 13
80.7289686274214
 23
60.6845471059287
 33
0.0
  0
SOLID
  5
24E
100
AcDbEntity
  8
画層0
100
AcDbTrace
 10
80.9921147013145
 20
59.8746667664357
 30
0.0
 11
80.7289686274214
 21
60.6845471059287
 31
0.0
 12
80.6374239897487
 22
60.7705132427758
 32
0.0
 13
80.6374239897487
 23
60.7705132427758
 33
0.0
  0
SOLID
  5
24F
100
AcDbEntity
  8
画層0
100
AcDbTrace
 10
80.9921147013145
 20
59.8746667664357
 30
0.0
 11
80.6374239897487
 21
60.7705132427758
 31
0.0
 12
80.535826794979
 22
60.844327925502
 32
0.0
 13
80.535826794979
 23
60.844327925502
 33
0.0
  0
SOLID
  5
250
100
AcDbEntity
  8
画層0
100
AcDbTrace
 10
80.9921147013145
 20
59.8746667664357
 30
0.0
 11
80.535826794979
 21
60.844327925502
 31
0.0
 12
80.4257792915651
 22
60.904827052466
 32
0.0
 13
80.4257792915651
 23
60.904827052466
 33
0.0
  0
SOLID
  5
251
100
AcDbEntity
  8
画層0
100
AcDbTrace
 10
80.9921147013145
 20
59.8746667664357
 30
0.0
 11
80.4257792915651
 21
60.904827052466
 31
0.0
 12
80.3090169943749
 22
60.9510565162952
 32
0.0
 13
80.3090169943749
 23
60.9510565162952
 33
0.0
  0
SOLID
  5
252
100
AcDbEntity
  8
画層0
100
AcDbTrace
 10
80.9921147013145
 20
59.8746667664357
 30
0.0
 11
80.3090169943749
 21
60.9510565162952
 31
0.0
 12
80.1873813145857
 22
60.9822872507287
 32
0.0
 13
80.1873813145857
 23
60.9822872507287
 33
0.0
  0
SOLID
  5
253
100
AcDbEntity
  8
画層0
100
AcDbTrace
 10
80.9921147013145
 20
59.8746667664357
 30
0.0
 11
80.1873813145857
 21
60.9822872507287
 31
0.0
 12
80.0627905195293
 22
60.9980267284283
 32
0.0
 13
80.0627905195293
 23
60.9980267284283
 33
0.0
  0
SOLID
  5
254
100
AcDbEntity
  8
画層0
100
AcDbTrace
 10
80.9921147013145
 20
59.8746667664357
 30
0.0
 11
80.0627905195293
 21
60.9980267284283
 31
0.0
 12
79.9372094804707
 22
60.9980267284283
 32
0.0
 13
79.9372094804707
 23
60.9980267284283
 33
0.0
  0
SOLID
  5
255
100
AcDbEntity
  8
画層0
100
AcDbTrace
 10
80.9921147013145
 20
59.8746667664357
 30
0.0
 11
79.9372094804707
 21
60.9980267284283
 31
0.0
 12
79.8126186854143
 22
60.9822872507287
 32
0.0
 13
79.8126186854143
 23
60.9822872507287
 33
0.0
  0
SOLID
  5
256
100
AcDbEntity
  8
画層0
100
AcDbTrace
 10
80.9921147013145
 20
59.8746667664357
 30
0.0
 11
79.8126186854143
 21
60.9822872507287
 31
0.0
 12
79.6909830056251
 22
60.9510565162952
 32
0.0
 13
79.6909830056251
 23
60.9510565162952
 33
0.0
  0
SOLID
  5
257
100
AcDbEntity
  8
画層0
100
AcDbTrace
 10
80.9921147013145
 20
59.8746667664357
 30
0.0
 11
79.6909830056251
 21
60.9510565162952
 31
0.0
 12
79.5742207084349
 22
60.904827052466
 32
0.0
 13
79.5742207084349
 23
60.904827052466
 33
0.0
  0
SOLID
  5
258
100
AcDbEntity
  8
画層0
100
AcDbTrace
 10
80.9921147013145
 20
59.8746667664357
 30
0.0
 11
79.5742207084349
 21
60.904827052466
 31
0.0
 12
79.464173205021
 22
60.844327925502
 32
0.0
 13
79.464173205021
 23
60.844327925502
 33
0.0
  0
SOLID
  5
259
100
AcDbEntity
  8
画層0
100
AcDbTrace
 10
80.9921147013145
 20
59.8746667664357
 30
0.0
 11
79.464173205021
 21
60.844327925502
 31
0.0
 12
79.3625760102513
 22
60.7705132427758
 32
0.0
 13
79.3625760102513
 23
60.7705132427758
 33
0.0
  0
SOLID
  5
25A
100
AcDbEntity
  8
画層0
100
AcDbTrace
 10
80.9921147013145
 20
59.8746667664357
 30
0.0
 11
79.3625760102513
 21
60.7705132427758
 31
0.0
 12
79.2710313725786
 22
60.6845471059287
 32
0.0
 13
79.2710313725786
 23
60.6845471059287
 33
0.0
  0
SOLID
  5
25B
100
AcDbEntity
  8
画層0
100
AcDbTrace
 10
80.9921147013145
 20
59.8746667664357
 30
0.0
 11
79.2710313725786
 21
60.6845471059287
 31
0.0
 12
79.1909830056251
 22
60.5877852522925
 32
0.0
 13
79.1909830056251
 23
60.5877852522925
 33
0.0
  0
SOLID
  5
25C
100
AcDbEntity
  8
画層0
100
AcDbTrace
 10
80.9921147013145
 20
59.8746667664357
 30
0.0
 11
79.1909830056251
 21
60.5877852522925
 31
0.0
 12
79.1236933199561
 22
60.4817536741017
 32
0.0
 13
79.1236933199561
 23
60.4817536741017
 33
0.0
  0
SOLID
  5
25D
100
AcDbEntity
  8
画層0
100
AcDbTrace
 10
80.9921147013145
 20
59.8746667664357
 30
0.0
 11
79.1236933199561
 21
60.4817536741017
 31
0.0
 12
79.0702235141117
 22
60.3681245526847
 32
0.0
 13
79.0702235141117
 23
60.3681245526847
 33
0.0
  0
SOLID
  5
25E
100
AcDbEntity
  8
画層0
100
AcDbTrace
 10
80.9921147013145
 20
59.8746667664357
 30
0.0
 11
79.0702235141117
 21
60.3681245526847
 31
0.0
 12
79.0314168388714
 22
60.2486898871649
 32
0.0
 13
79.0314168388714
 23
60.2486898871649
 33
0.0
  0
SOLID
  5
25F
100
AcDbEntity
  8
画層0
100
AcDbTrace
 10
80.9921147013145
 20
59.8746667664357
 30
0.0
 11
79.0314168388714
 21
60.2486898871649
 31
0.0
 12
79.0078852986855
 22
60.1253332335643
 32
0.0
 13
79.0078852986855
 23
60.1253332335643
 33
0.0
  0
SOLID
  5
260
100
AcDbEntity
  8
画層0
100
AcDbTrace
 10
80.9921147013145
 20
59.8746667664357
 30
0.0
 11
79.0078852986855
 21
60.1253332335643
 31
0.0
 12
79
 22
60
 32
0.0
 13
79
 23
60
 33
0.0
  0
SOLID
  5
261
100
AcDbEntity
  8
画層0
100
AcDbTrace
 10
80.9921147013145
 20
59.8746667664357
 30
0.0
 11
79
 21
60
 31
0.0
 12
79.0078852986855
 22
59.8746667664357
 32
0.0
 13
79.0078852986855
 23
59.8746667664357
 33
0.0
  0
SOLID
  5
262
100
AcDbEntity
  8
画層0
100
AcDbTrace
 10
80.9921147013145
 20
59.8746667664357
 30
0.0
 11
79.0078852986855
 21
59.8746667664357
 31
0.0
 12
79.0314168388714
 22
59.7513101128351
 32
0.0
 13
79.0314168388714
 23
59.7513101128351
 33
0.0
  0
SOLID
  5
263
100
AcDbEntity
  8
画層0
100
AcDbTrace
 10
80.9921147013145
 20
59.8746667664357
 30
0.0
 11
79.0314168388714
 21
59.7513101128351
 31
0.0
 12
79.0702235141117
 22
59.6318754473153
 32
0.0
 13
79.0702235141117
 23
59.6318754473153
 33
0.0
  0
SOLID
  5
264
100
AcDbEntity
  8
画層0
100
AcDbTrace
 10
80.9921147013145
 20
59.8746667664357
 30
0.0
 11
79.0702235141117
 21
59.6318754473153
 31
0.0
 12
79.1236933199561
 22
59.5182463258983
 32
0.0
 13
79.1236933199561
 23
59.5182463258983
 33
0.0
  0
SOLID
  5
265
100
AcDbEntity
  8
画層0
100
AcDbTrace
 10
80.9921147013145
 20
59.8746667664357
 30
0.0
 11
79.1236933199561
 21
59.5182463258983
 31
0.0
 12
79.1909830056251
 22
59.4122147477075
 32
0.0
 13
79.1909830056251
 23
59.4122147477075
 33
0.0
  0
SOLID
  5
266
100
AcDbEntity
  8
画層0
100
AcDbTrace
 10
80.9921147013145
 20
59.8746667664357
 30
0.0
 11
79.1909830056251
 21
59.4122147477075
 31
0.0
 12
79.2710313725786
 22
59.3154528940713
 32
0.0
 13
79.2710313725786
 23
59.3154528940713
 33
0.0
  0
SOLID
  5
267
100
AcDbEntity
  8
画層0
100
AcDbTrace
 10
80.9921147013145
 20
59.8746667664357
 30
0.0
 11
79.2710313725786
 21
59.3154528940713
 31
0.0
 12
79.3625760102513
 22
59.2294867572242
 32
0.0
 13
79.3625760102513
 23
59.2294867572242
 33
0.0
  0
SOLID
  5
268
100
AcDbEntity
  8
画層0
100
AcDbTrace
 10
80.9921147013145
 20
59.8746667664357
 30
0.0
 11
79.3625760102513
 21
59.2294867572242
 31
0.0
 12
79.464173205021
 22
59.155672074498
 32
0.0
 13
79.464173205021
 23
59.155672074498
 33
0.0
  0
SOLID
  5
269
100
AcDbEntity
  8
画層0
100
AcDbTrace
 10
80.9921147013145
 20
59.8746667664357
 30
0.0
 11
79.464173205021
 21
59.155672074498
 31
0.0
 12
79.5742207084349
 22
59.095172947534
 32
0.0
 13
79.5742207084349
 23
59.095172947534
 33
0.0
  0
SOLID
  5
26A
100
AcDbEntity
  8
画層0
100
AcDbTrace
 10
80.9921147013145
 20
59.8746667664357
 30
0.0
 11
79.5742207084349
 21
59.095172947534
 31
0.0
 12
79.6909830056251
 22
59.0489434837048
 32
0.0
 13
79.6909830056251
 23
59.0489434837048
 33
0.0
  0
SOLID
  5
26B
100
AcDbEntity
  8
画層0
100
AcDbTrace
 10
80.9921147013145
 20
59.8746667664357
 30
0.0
 11
79.6909830056251
 21
59.0489434837048
 31
0.0
 12
79.8126186854143
 22
59.0177127492713
 32
0.0
 13
79.8126186854143
 23
59.0177127492713
 33
0.0
  0
SOLID
  5
26C
100
AcDbEntity
  8
画層0
100
AcDbTrace
 10
80.9921147013145
 20
59.8746667664357
 30
0.0
 11
79.8126186854143
 21
59.0177127492713
 31
0.0
 12
79.9372094804707
 22
59.0019732715717
 32
0.0
 13
79.9372094804707
 23
59.0019732715717
 33
0.0
  0
SOLID
  5
26D
100
AcDbEntity
  8
画層0
100
AcDbTrace
 10
80.9921147013145
 20
59.8746667664357
 30
0.0
 11
79.9372094804707
 21
59.0019732715717
 31
0.0
 12
80.0627905195293
 22
59.0019732715717
 32
0.0
 13
80.0627905195293
 23
59.0019732715717
 33
0.0
  0
SOLID
  5
26E
100
AcDbEntity
  8
画層0
100
AcDbTrace
 10
80.9921147013145
 20
59.8746667664357
 30
0.0
 11
80.0627905195293
 21
59.0019732715717
 31
0.0
 12
80.1873813145857
 22
59.0177127492713
 32
0.0
 13
80.1873813145857
 23
59.0177127492713
 33
0.0
  0
SOLID
  5
26F
100
AcDbEntity
  8
画層0
100
AcDbTrace
 10
80.9921147013145
 20
59.8746667664357
 30
0.0
 11
80.1873813145857
 21
59.0177127492713
 31
0.0
 12
80.309016994375
 22
59.0489434837048
 32
0.0
 13
80.309016994375
 23
59.0489434837048
 33
0.0
  0
SOLID
  5
270
100
AcDbEntity
  8
画層0
100
AcDbTrace
 10
80.9921147013145
 20
59.8746667664357
 30
0.0
 11
80.309016994375
 21
59.0489434837048
 31
0.0
 12
80.4257792915651
 22
59.095172947534
 32
0.0
 13
80.4257792915651
 23
59.095172947534
 33
0.0
  0
SOLID
  5
271
100
AcDbEntity
  8
画層0
100
AcDbTrace
 10
80.9921147013145
 20
59.8746667664357
 30
0.0
 11
80.4257792915651
 21
59.095172947534
 31
0.0
 12
80.535826794979
 22
59.155672074498
 32
0.0
 13
80.535826794979
 23
59.155672074498
 33
0.0
  0
SOLID
  5
272
100
AcDbEntity
  8
画層0
100
AcDbTrace
 10
80.9921147013145
 20
59.8746667664357
 30
0.0
 11
80.535826794979
 21
59.155672074498
 31
0.0
 12
80.6374239897487
 22
59.2294867572242
 32
0.0
 13
80.6374239897487
 23
59.2294867572242
 33
0.0
  0
SOLID
  5
273
100
AcDbEntity
  8
画層0
100
AcDbTrace
 10
80.9921147013145
 20
59.8746667664357
 30
0.0
 11
80.6374239897487
 21
59.2294867572242
 31
0.0
 12
80.7289686274214
 22
59.3154528940713
 32
0.0
 13
80.7289686274214
 23
59.3154528940713
 33
0.0
  0
SOLID
  5
274
100
AcDbEntity
  8
画層0
100
AcDbTrace
 10
80.9921147013145
 20
59.8746667664357
 30
0.0
 11
80.7289686274214
 21
59.3154528940713
 31
0.0
 12
80.8090169943749
 22
59.4122147477075
 32
0.0
 13
80.8090169943749
 23
59.4122147477075
 33
0.0
  0
SOLID
  5
275
100
AcDbEntity
  8
画層0
100
AcDbTrace
 10
80.9921147013145
 20
59.8746667664357
 30
0.0
 11
80.8090169943749
 21
59.4122147477075
 31
0.0
 12
80.8763066800439
 22
59.5182463258983
 32
0.0
 13
80.8763066800439
 23
59.5182463258983
 33
0.0
  0
SOLID
  5
276
100
AcDbEntity
  8
画層0
100
AcDbTrace
 10
80.9921147013145
 20
59.8746667664357
 30
0.0
 11
80.8763066800439
 21
59.5182463258983
 31
0.0
 12
80.9297764858883
 22
59.6318754473153
 32
0.0
 13
80.9297764858883
 23
59.6318754473153
 33
0.0
  0
SOLID
  5
277
100
AcDbEntity
  8
画層0
100
AcDbTrace
 10
80.9921147013145
 20
59.8746667664357
 30
0.0
 11
80.9297764858883
 21
59.6318754473153
 31
0.0
 12
80.9685831611286
 22
59.7513101128351
 32
0.0
 13
80.9685831611286
 23
59.7513101128351
 33
0.0
  0
CIRCLE
  5
278
100
AcDbEntity
  8
画層0
100
AcDbCircle
  6
CONTINUOUS
 10
50
 20
100
 40
1
  0
SOLID
  5
279
100
AcDbEntity
  8
画層0
100
AcDbTrace
 10
50.9921147013145
 20
99.8746667664357
 30
0.0
 11
51
 21
100
 31
0.0
 12
50.9921147013145
 22
100.125333233564
 32
0.0
 13
50.9921147013145
 23
100.125333233564
 33
0.0
  0
SOLID
  5
27A
100
AcDbEntity
  8
画層0
100
AcDbTrace
 10
50.9921147013145
 20
99.8746667664357
 30
0.0
 11
50.9921147013145
 21
100.125333233564
 31
0.0
 12
50.9685831611286
 22
100.248689887165
 32
0.0
 13
50.9685831611286
 23
100.248689887165
 33
0.0
  0
SOLID
  5
27B
100
AcDbEntity
  8
画層0
100
AcDbTrace
 10
50.9921147013145
 20
99.8746667664357
 30
0.0
 11
50.9685831611286
 21
100.248689887165
 31
0.0
 12
50.9297764858883
 22
100.368124552685
 32
0.0
 13
50.9297764858883
 23
100.368124552685
 33
0.0
  0
SOLID
  5
27C
100
AcDbEntity
  8
画層0
100
AcDbTrace
 10
50.9921147013145
 20
99.8746667664357
 30
0.0
 11
50.9297764858883
 21
100.368124552685
 31
0.0
 12
50.8763066800439
 22
100.481753674102
 32
0.0
 13
50.8763066800439
 23
100.481753674102
 33
0.0
  0
SOLID
  5
27D
100
AcDbEntity
  8
画層0
100
AcDbTrace
 10
50.9921147013145
 20
99.8746667664357
 30
0.0
 11
50.8763066800439
 21
100.481753674102
 31
0.0
 12
50.809016994375
 22
100.587785252292
 32
0.0
 13
50.809016994375
 23
100.587785252292
 33
0.0
  0
SOLID
  5
27E
100
AcDbEntity
  8
画層0
100
AcDbTrace
 10
50.9921147013145
 20
99.8746667664357
 30
0.0
 11
50.809016994375
 21
100.587785252292
 31
0.0
 12
50.7289686274214
 22
100.684547105929
 32
0.0
 13
50.7289686274214
 23
100.684547105929
 33
0.0
  0
SOLID
  5
27F
100
AcDbEntity
  8
画層0
100
AcDbTrace
 10
50.9921147013145
 20
99.8746667664357
 30
0.0
 11
50.7289686274214
 21
100.684547105929
 31
0.0
 12
50.6374239897487
 22
100.770513242776
 32
0.0
 13
50.6374239897487
 23
100.770513242776
 33
0.0
  0
SOLID
  5
280
100
AcDbEntity
  8
画層0
100
AcDbTrace
 10
50.9921147013145
 20
99.8746667664357
 30
0.0
 11
50.6374239897487
 21
100.770513242776
 31
0.0
 12
50.535826794979
 22
100.844327925502
 32
0.0
 13
50.535826794979
 23
100.844327925502
 33
0.0
  0
SOLID
  5
281
100
AcDbEntity
  8
画層0
100
AcDbTrace
 10
50.9921147013145
 20
99.8746667664357
 30
0.0
 11
50.535826794979
 21
100.844327925502
 31
0.0
 12
50.4257792915651
 22
100.904827052466
 32
0.0
 13
50.4257792915651
 23
100.904827052466
 33
0.0
  0
SOLID
  5
282
100
AcDbEntity
  8
画層0
100
AcDbTrace
 10
50.9921147013145
 20
99.8746667664357
 30
0.0
 11
50.4257792915651
 21
100.904827052466
 31
0.0
 12
50.309016994375
 22
100.951056516295
 32
0.0
 13
50.309016994375
 23
100.951056516295
 33
0.0
  0
SOLID
  5
283
100
AcDbEntity
  8
画層0
100
AcDbTrace
 10
50.9921147013145
 20
99.8746667664357
 30
0.0
 11
50.309016994375
 21
100.951056516295
 31
0.0
 12
50.1873813145857
 22
100.982287250729
 32
0.0
 13
50.1873813145857
 23
100.982287250729
 33
0.0
  0
SOLID
  5
284
100
AcDbEntity
  8
画層0
100
AcDbTrace
 10
50.9921147013145
 20
99.8746667664357
 30
0.0
 11
50.1873813145857
 21
100.982287250729
 31
0.0
 12
50.0627905195293
 22
100.998026728428
 32
0.0
 13
50.0627905195293
 23
100.998026728428
 33
0.0
  0
SOLID
  5
285
100
AcDbEntity
  8
画層0
100
AcDbTrace
 10
50.9921147013145
 20
99.8746667664357
 30
0.0
 11
50.0627905195293
 21
100.998026728428
 31
0.0
 12
49.9372094804707
 22
100.998026728428
 32
0.0
 13
49.9372094804707
 23
100.998026728428
 33
0.0
  0
SOLID
  5
286
100
AcDbEntity
  8
画層0
100
AcDbTrace
 10
50.9921147013145
 20
99.8746667664357
 30
0.0
 11
49.9372094804707
 21
100.998026728428
 31
0.0
 12
49.8126186854143
 22
100.982287250729
 32
0.0
 13
49.8126186854143
 23
100.982287250729
 33
0.0
  0
SOLID
  5
287
100
AcDbEntity
  8
画層0
100
AcDbTrace
 10
50.9921147013145
 20
99.8746667664357
 30
0.0
 11
49.8126186854143
 21
100.982287250729
 31
0.0
 12
49.690983005625
 22
100.951056516295
 32
0.0
 13
49.690983005625
 23
100.951056516295
 33
0.0
  0
SOLID
  5
288
100
AcDbEntity
  8
画層0
100
AcDbTrace
 10
50.9921147013145
 20
99.8746667664357
 30
0.0
 11
49.690983005625
 21
100.951056516295
 31
0.0
 12
49.5742207084349
 22
100.904827052466
 32
0.0
 13
49.5742207084349
 23
100.904827052466
 33
0.0
  0
SOLID
  5
289
100
AcDbEntity
  8
画層0
100
AcDbTrace
 10
50.9921147013145
 20
99.8746667664357
 30
0.0
 11
49.5742207084349
 21
100.904827052466
 31
0.0
 12
49.464173205021
 22
100.844327925502
 32
0.0
 13
49.464173205021
 23
100.844327925502
 33
0.0
  0
SOLID
  5
28A
100
AcDbEntity
  8
画層0
100
AcDbTrace
 10
50.9921147013145
 20
99.8746667664357
 30
0.0
 11
49.464173205021
 21
100.844327925502
 31
0.0
 12
49.3625760102513
 22
100.770513242776
 32
0.0
 13
49.3625760102513
 23
100.770513242776
 33
0.0
  0
SOLID
  5
28B
100
AcDbEntity
  8
画層0
100
AcDbTrace
 10
50.9921147013145
 20
99.8746667664357
 30
0.0
 11
49.3625760102513
 21
100.770513242776
 31
0.0
 12
49.2710313725786
 22
100.684547105929
 32
0.0
 13
49.2710313725786
 23
100.684547105929
 33
0.0
  0
SOLID
  5
28C
100
AcDbEntity
  8
画層0
100
AcDbTrace
 10
50.9921147013145
 20
99.8746667664357
 30
0.0
 11
49.2710313725786
 21
100.684547105929
 31
0.0
 12
49.190983005625
 22
100.587785252292
 32
0.0
 13
49.190983005625
 23
100.587785252292
 33
0.0
  0
SOLID
  5
28D
100
AcDbEntity
  8
画層0
100
AcDbTrace
 10
50.9921147013145
 20
99.8746667664357
 30
0.0
 11
49.190983005625
 21
100.587785252292
 31
0.0
 12
49.1236933199561
 22
100.481753674102
 32
0.0
 13
49.1236933199561
 23
100.481753674102
 33
0.0
  0
SOLID
  5
28E
100
AcDbEntity
  8
画層0
100
AcDbTrace
 10
50.9921147013145
 20
99.8746667664357
 30
0.0
 11
49.1236933199561
 21
100.481753674102
 31
0.0
 12
49.0702235141117
 22
100.368124552685
 32
0.0
 13
49.0702235141117
 23
100.368124552685
 33
0.0
  0
SOLID
  5
28F
100
AcDbEntity
  8
画層0
100
AcDbTrace
 10
50.9921147013145
 20
99.8746667664357
 30
0.0
 11
49.0702235141117
 21
100.368124552685
 31
0.0
 12
49.0314168388714
 22
100.248689887165
 32
0.0
 13
49.0314168388714
 23
100.248689887165
 33
0.0
  0
SOLID
  5
290
100
AcDbEntity
  8
画層0
100
AcDbTrace
 10
50.9921147013145
 20
99.8746667664357
 30
0.0
 11
49.0314168388714
 21
100.248689887165
 31
0.0
 12
49.0078852986855
 22
100.125333233564
 32
0.0
 13
49.0078852986855
 23
100.125333233564
 33
0.0
  0
SOLID
  5
291
100
AcDbEntity
  8
画層0
100
AcDbTrace
 10
50.9921147013145
 20
99.8746667664357
 30
0.0
 11
49.0078852986855
 21
100.125333233564
 31
0.0
 12
49
 22
100
 32
0.0
 13
49
 23
100
 33
0.0
  0
SOLID
  5
292
100
AcDbEntity
  8
画層0
100
AcDbTrace
 10
50.9921147013145
 20
99.8746667664357
 30
0.0
 11
49
 21
100
 31
0.0
 12
49.0078852986855
 22
99.8746667664357
 32
0.0
 13
49.0078852986855
 23
99.8746667664357
 33
0.0
  0
SOLID
  5
293
100
AcDbEntity
  8
画層0
100
AcDbTrace
 10
50.9921147013145
 20
99.8746667664357
 30
0.0
 11
49.0078852986855
 21
99.8746667664357
 31
0.0
 12
49.0314168388714
 22
99.7513101128351
 32
0.0
 13
49.0314168388714
 23
99.7513101128351
 33
0.0
  0
SOLID
  5
294
100
AcDbEntity
  8
画層0
100
AcDbTrace
 10
50.9921147013145
 20
99.8746667664357
 30
0.0
 11
49.0314168388714
 21
99.7513101128351
 31
0.0
 12
49.0702235141118
 22
99.6318754473153
 32
0.0
 13
49.0702235141118
 23
99.6318754473153
 33
0.0
  0
SOLID
  5
295
100
AcDbEntity
  8
画層0
100
AcDbTrace
 10
50.9921147013145
 20
99.8746667664357
 30
0.0
 11
49.0702235141118
 21
99.6318754473153
 31
0.0
 12
49.1236933199561
 22
99.5182463258983
 32
0.0
 13
49.1236933199561
 23
99.5182463258983
 33
0.0
  0
SOLID
  5
296
100
AcDbEntity
  8
画層0
100
AcDbTrace
 10
50.9921147013145
 20
99.8746667664357
 30
0.0
 11
49.1236933199561
 21
99.5182463258983
 31
0.0
 12
49.1909830056251
 22
99.4122147477075
 32
0.0
 13
49.1909830056251
 23
99.4122147477075
 33
0.0
  0
SOLID
  5
297
100
AcDbEntity
  8
画層0
100
AcDbTrace
 10
50.9921147013145
 20
99.8746667664357
 30
0.0
 11
49.1909830056251
 21
99.4122147477075
 31
0.0
 12
49.2710313725786
 22
99.3154528940713
 32
0.0
 13
49.2710313725786
 23
99.3154528940713
 33
0.0
  0
SOLID
  5
298
100
AcDbEntity
  8
画層0
100
AcDbTrace
 10
50.9921147013145
 20
99.8746667664357
 30
0.0
 11
49.2710313725786
 21
99.3154528940713
 31
0.0
 12
49.3625760102513
 22
99.2294867572242
 32
0.0
 13
49.3625760102513
 23
99.2294867572242
 33
0.0
  0
SOLID
  5
299
100
AcDbEntity
  8
画層0
100
AcDbTrace
 10
50.9921147013145
 20
99.8746667664357
 30
0.0
 11
49.3625760102513
 21
99.2294867572242
 31
0.0
 12
49.464173205021
 22
99.155672074498
 32
0.0
 13
49.464173205021
 23
99.155672074498
 33
0.0
  0
SOLID
  5
29A
100
AcDbEntity
  8
画層0
100
AcDbTrace
 10
50.9921147013145
 20
99.8746667664357
 30
0.0
 11
49.464173205021
 21
99.155672074498
 31
0.0
 12
49.5742207084349
 22
99.095172947534
 32
0.0
 13
49.5742207084349
 23
99.095172947534
 33
0.0
  0
SOLID
  5
29B
100
AcDbEntity
  8
画層0
100
AcDbTrace
 10
50.9921147013145
 20
99.8746667664357
 30
0.0
 11
49.5742207084349
 21
99.095172947534
 31
0.0
 12
49.6909830056251
 22
99.0489434837048
 32
0.0
 13
49.6909830056251
 23
99.0489434837048
 33
0.0
  0
SOLID
  5
29C
100
AcDbEntity
  8
画層0
100
AcDbTrace
 10
50.9921147013145
 20
99.8746667664357
 30
0.0
 11
49.6909830056251
 21
99.0489434837048
 31
0.0
 12
49.8126186854143
 22
99.0177127492713
 32
0.0
 13
49.8126186854143
 23
99.0177127492713
 33
0.0
  0
SOLID
  5
29D
100
AcDbEntity
  8
画層0
100
AcDbTrace
 10
50.9921147013145
 20
99.8746667664357
 30
0.0
 11
49.8126186854143
 21
99.0177127492713
 31
0.0
 12
49.9372094804707
 22
99.0019732715717
 32
0.0
 13
49.9372094804707
 23
99.0019732715717
 33
0.0
  0
SOLID
  5
29E
100
AcDbEntity
  8
画層0
100
AcDbTrace
 10
50.9921147013145
 20
99.8746667664357
 30
0.0
 11
49.9372094804707
 21
99.0019732715717
 31
0.0
 12
50.0627905195293
 22
99.0019732715717
 32
0.0
 13
50.0627905195293
 23
99.0019732715717
 33
0.0
  0
SOLID
  5
29F
100
AcDbEntity
  8
画層0
100
AcDbTrace
 10
50.9921147013145
 20
99.8746667664357
 30
0.0
 11
50.0627905195293
 21
99.0019732715717
 31
0.0
 12
50.1873813145857
 22
99.0177127492713
 32
0.0
 13
50.1873813145857
 23
99.0177127492713
 33
0.0
  0
SOLID
  5
2A0
100
AcDbEntity
  8
画層0
100
AcDbTrace
 10
50.9921147013145
 20
99.8746667664357
 30
0.0
 11
50.1873813145857
 21
99.0177127492713
 31
0.0
 12
50.309016994375
 22
99.0489434837048
 32
0.0
 13
50.309016994375
 23
99.0489434837048
 33
0.0
  0
SOLID
  5
2A1
100
AcDbEntity
  8
画層0
100
AcDbTrace
 10
50.9921147013145
 20
99.8746667664357
 30
0.0
 11
50.309016994375
 21
99.0489434837048
 31
0.0
 12
50.4257792915651
 22
99.095172947534
 32
0.0
 13
50.4257792915651
 23
99.095172947534
 33
0.0
  0
SOLID
  5
2A2
100
AcDbEntity
  8
画層0
100
AcDbTrace
 10
50.9921147013145
 20
99.8746667664357
 30
0.0
 11
50.4257792915651
 21
99.095172947534
 31
0.0
 12
50.535826794979
 22
99.155672074498
 32
0.0
 13
50.535826794979
 23
99.155672074498
 33
0.0
  0
SOLID
  5
2A3
100
AcDbEntity
  8
画層0
100
AcDbTrace
 10
50.9921147013145
 20
99.8746667664357
 30
0.0
 11
50.535826794979
 21
99.155672074498
 31
0.0
 12
50.6374239897487
 22
99.2294867572242
 32
0.0
 13
50.6374239897487
 23
99.2294867572242
 33
0.0
  0
SOLID
  5
2A4
100
AcDbEntity
  8
画層0
100
AcDbTrace
 10
50.9921147013145
 20
99.8746667664357
 30
0.0
 11
50.6374239897487
 21
99.2294867572242
 31
0.0
 12
50.7289686274214
 22
99.3154528940713
 32
0.0
 13
50.7289686274214
 23
99.3154528940713
 33
0.0
  0
SOLID
  5
2A5
100
AcDbEntity
  8
画層0
100
AcDbTrace
 10
50.9921147013145
 20
99.8746667664357
 30
0.0
 11
50.7289686274214
 21
99.3154528940713
 31
0.0
 12
50.809016994375
 22
99.4122147477075
 32
0.0
 13
50.809016994375
 23
99.4122147477075
 33
0.0
  0
SOLID
  5
2A6
100
AcDbEntity
  8
画層0
100
AcDbTrace
 10
50.9921147013145
 20
99.8746667664357
 30
0.0
 11
50.809016994375
 21
99.4122147477075
 31
0.0
 12
50.8763066800439
 22
99.5182463258983
 32
0.0
 13
50.8763066800439
 23
99.5182463258983
 33
0.0
  0
SOLID
  5
2A7
100
AcDbEntity
  8
画層0
100
AcDbTrace
 10
50.9921147013145
 20
99.8746667664357
 30
0.0
 11
50.8763066800439
 21
99.5182463258983
 31
0.0
 12
50.9297764858883
 22
99.6318754473153
 32
0.0
 13
50.9297764858883
 23
99.6318754473153
 33
0.0
  0
SOLID
  5
2A8
100
AcDbEntity
  8
画層0
100
AcDbTrace
 10
50.9921147013145
 20
99.8746667664357
 30
0.0
 11
50.9297764858883
 21
99.6318754473153
 31
0.0
 12
50.9685831611286
 22
99.7513101128352
 32
0.0
 13
50.9685831611286
 23
99.7513101128352
 33
0.0
  0
CIRCLE
  5
2A9
100
AcDbEntity
  8
画層0
100
AcDbCircle
  6
CONTINUOUS
 10
180
 20
100
 40
1
  0
SOLID
  5
2AA
100
AcDbEntity
  8
画層0
100
AcDbTrace
 10
180.992114701314
 20
99.8746667664357
 30
0.0
 11
181
 21
100
 31
0.0
 12
180.992114701314
 22
100.125333233564
 32
0.0
 13
180.992114701314
 23
100.125333233564
 33
0.0
  0
SOLID
  5
2AB
100
AcDbEntity
  8
画層0
100
AcDbTrace
 10
180.992114701314
 20
99.8746667664357
 30
0.0
 11
180.992114701314
 21
100.125333233564
 31
0.0
 12
180.968583161129
 22
100.248689887165
 32
0.0
 13
180.968583161129
 23
100.248689887165
 33
0.0
  0
SOLID
  5
2AC
100
AcDbEntity
  8
画層0
100
AcDbTrace
 10
180.992114701314
 20
99.8746667664357
 30
0.0
 11
180.968583161129
 21
100.248689887165
 31
0.0
 12
180.929776485888
 22
100.368124552685
 32
0.0
 13
180.929776485888
 23
100.368124552685
 33
0.0
  0
SOLID
  5
2AD
100
AcDbEntity
  8
画層0
100
AcDbTrace
 10
180.992114701314
 20
99.8746667664357
 30
0.0
 11
180.929776485888
 21
100.368124552685
 31
0.0
 12
180.876306680044
 22
100.481753674102
 32
0.0
 13
180.876306680044
 23
100.481753674102
 33
0.0
  0
SOLID
  5
2AE
100
AcDbEntity
  8
画層0
100
AcDbTrace
 10
180.992114701314
 20
99.8746667664357
 30
0.0
 11
180.876306680044
 21
100.481753674102
 31
0.0
 12
180.809016994375
 22
100.587785252292
 32
0.0
 13
180.809016994375
 23
100.587785252292
 33
0.0
  0
SOLID
  5
2AF
100
AcDbEntity
  8
画層0
100
AcDbTrace
 10
180.992114701314
 20
99.8746667664357
 30
0.0
 11
180.809016994375
 21
100.587785252292
 31
0.0
 12
180.728968627421
 22
100.684547105929
 32
0.0
 13
180.728968627421
 23
100.684547105929
 33
0.0
  0
SOLID
  5
2B0
100
AcDbEntity
  8
画層0
100
AcDbTrace
 10
180.992114701314
 20
99.8746667664357
 30
0.0
 11
180.728968627421
 21
100.684547105929
 31
0.0
 12
180.637423989749
 22
100.770513242776
 32
0.0
 13
180.637423989749
 23
100.770513242776
 33
0.0
  0
SOLID
  5
2B1
100
AcDbEntity
  8
画層0
100
AcDbTrace
 10
180.992114701314
 20
99.8746667664357
 30
0.0
 11
180.637423989749
 21
100.770513242776
 31
0.0
 12
180.535826794979
 22
100.844327925502
 32
0.0
 13
180.535826794979
 23
100.844327925502
 33
0.0
  0
SOLID
  5
2B2
100
AcDbEntity
  8
画層0
100
AcDbTrace
 10
180.992114701314
 20
99.8746667664357
 30
0.0
 11
180.535826794979
 21
100.844327925502
 31
0.0
 12
180.425779291565
 22
100.904827052466
 32
0.0
 13
180.425779291565
 23
100.904827052466
 33
0.0
  0
SOLID
  5
2B3
100
AcDbEntity
  8
画層0
100
AcDbTrace
 10
180.992114701314
 20
99.8746667664357
 30
0.0
 11
180.425779291565
 21
100.904827052466
 31
0.0
 12
180.309016994375
 22
100.951056516295
 32
0.0
 13
180.309016994375
 23
100.951056516295
 33
0.0
  0
SOLID
  5
2B4
100
AcDbEntity
  8
画層0
100
AcDbTrace
 10
180.992114701314
 20
99.8746667664357
 30
0.0
 11
180.309016994375
 21
100.951056516295
 31
0.0
 12
180.187381314586
 22
100.982287250729
 32
0.0
 13
180.187381314586
 23
100.982287250729
 33
0.0
  0
SOLID
  5
2B5
100
AcDbEntity
  8
画層0
100
AcDbTrace
 10
180.992114701314
 20
99.8746667664357
 30
0.0
 11
180.187381314586
 21
100.982287250729
 31
0.0
 12
180.062790519529
 22
100.998026728428
 32
0.0
 13
180.062790519529
 23
100.998026728428
 33
0.0
  0
SOLID
  5
2B6
100
AcDbEntity
  8
画層0
100
AcDbTrace
 10
180.992114701314
 20
99.8746667664357
 30
0.0
 11
180.062790519529
 21
100.998026728428
 31
0.0
 12
179.937209480471
 22
100.998026728428
 32
0.0
 13
179.937209480471
 23
100.998026728428
 33
0.0
  0
SOLID
  5
2B7
100
AcDbEntity
  8
画層0
100
AcDbTrace
 10
180.992114701314
 20
99.8746667664357
 30
0.0
 11
179.937209480471
 21
100.998026728428
 31
0.0
 12
179.812618685414
 22
100.982287250729
 32
0.0
 13
179.812618685414
 23
100.982287250729
 33
0.0
  0
SOLID
  5
2B8
100
AcDbEntity
  8
画層0
100
AcDbTrace
 10
180.992114701314
 20
99.8746667664357
 30
0.0
 11
179.812618685414
 21
100.982287250729
 31
0.0
 12
179.690983005625
 22
100.951056516295
 32
0.0
 13
179.690983005625
 23
100.951056516295
 33
0.0
  0
SOLID
  5
2B9
100
AcDbEntity
  8
画層0
100
AcDbTrace
 10
180.992114701314
 20
99.8746667664357
 30
0.0
 11
179.690983005625
 21
100.951056516295
 31
0.0
 12
179.574220708435
 22
100.904827052466
 32
0.0
 13
179.574220708435
 23
100.904827052466
 33
0.0
  0
SOLID
  5
2BA
100
AcDbEntity
  8
画層0
100
AcDbTrace
 10
180.992114701314
 20
99.8746667664357
 30
0.0
 11
179.574220708435
 21
100.904827052466
 31
0.0
 12
179.464173205021
 22
100.844327925502
 32
0.0
 13
179.464173205021
 23
100.844327925502
 33
0.0
  0
SOLID
  5
2BB
100
AcDbEntity
  8
画層0
100
AcDbTrace
 10
180.992114701314
 20
99.8746667664357
 30
0.0
 11
179.464173205021
 21
100.844327925502
 31
0.0
 12
179.362576010251
 22
100.770513242776
 32
0.0
 13
179.362576010251
 23
100.770513242776
 33
0.0
  0
SOLID
  5
2BC
100
AcDbEntity
  8
画層0
100
AcDbTrace
 10
180.992114701314
 20
99.8746667664357
 30
0.0
 11
179.362576010251
 21
100.770513242776
 31
0.0
 12
179.271031372579
 22
100.684547105929
 32
0.0
 13
179.271031372579
 23
100.684547105929
 33
0.0
  0
SOLID
  5
2BD
100
AcDbEntity
  8
画層0
100
AcDbTrace
 10
180.992114701314
 20
99.8746667664357
 30
0.0
 11
179.271031372579
 21
100.684547105929
 31
0.0
 12
179.190983005625
 22
100.587785252292
 32
0.0
 13
179.190983005625
 23
100.587785252292
 33
0.0
  0
SOLID
  5
2BE
100
AcDbEntity
  8
画層0
100
AcDbTrace
 10
180.992114701314
 20
99.8746667664357
 30
0.0
 11
179.190983005625
 21
100.587785252292
 31
0.0
 12
179.123693319956
 22
100.481753674102
 32
0.0
 13
179.123693319956
 23
100.481753674102
 33
0.0
  0
SOLID
  5
2BF
100
AcDbEntity
  8
画層0
100
AcDbTrace
 10
180.992114701314
 20
99.8746667664357
 30
0.0
 11
179.123693319956
 21
100.481753674102
 31
0.0
 12
179.070223514112
 22
100.368124552685
 32
0.0
 13
179.070223514112
 23
100.368124552685
 33
0.0
  0
SOLID
  5
2C0
100
AcDbEntity
  8
画層0
100
AcDbTrace
 10
180.992114701314
 20
99.8746667664357
 30
0.0
 11
179.070223514112
 21
100.368124552685
 31
0.0
 12
179.031416838871
 22
100.248689887165
 32
0.0
 13
179.031416838871
 23
100.248689887165
 33
0.0
  0
SOLID
  5
2C1
100
AcDbEntity
  8
画層0
100
AcDbTrace
 10
180.992114701314
 20
99.8746667664357
 30
0.0
 11
179.031416838871
 21
100.248689887165
 31
0.0
 12
179.007885298686
 22
100.125333233564
 32
0.0
 13
179.007885298686
 23
100.125333233564
 33
0.0
  0
SOLID
  5
2C2
100
AcDbEntity
  8
画層0
100
AcDbTrace
 10
180.992114701314
 20
99.8746667664357
 30
0.0
 11
179.007885298686
 21
100.125333233564
 31
0.0
 12
179
 22
100
 32
0.0
 13
179
 23
100
 33
0.0
  0
SOLID
  5
2C3
100
AcDbEntity
  8
画層0
100
AcDbTrace
 10
180.992114701314
 20
99.8746667664357
 30
0.0
 11
179
 21
100
 31
0.0
 12
179.007885298686
 22
99.8746667664357
 32
0.0
 13
179.007885298686
 23
99.8746667664357
 33
0.0
  0
SOLID
  5
2C4
100
AcDbEntity
  8
画層0
100
AcDbTrace
 10
180.992114701314
 20
99.8746667664357
 30
0.0
 11
179.007885298686
 21
99.8746667664357
 31
0.0
 12
179.031416838871
 22
99.7513101128351
 32
0.0
 13
179.031416838871
 23
99.7513101128351
 33
0.0
  0
SOLID
  5
2C5
100
AcDbEntity
  8
画層0
100
AcDbTrace
 10
180.992114701314
 20
99.8746667664357
 30
0.0
 11
179.031416838871
 21
99.7513101128351
 31
0.0
 12
179.070223514112
 22
99.6318754473153
 32
0.0
 13
179.070223514112
 23
99.6318754473153
 33
0.0
  0
SOLID
  5
2C6
100
AcDbEntity
  8
画層0
100
AcDbTrace
 10
180.992114701314
 20
99.8746667664357
 30
0.0
 11
179.070223514112
 21
99.6318754473153
 31
0.0
 12
179.123693319956
 22
99.5182463258983
 32
0.0
 13
179.123693319956
 23
99.5182463258983
 33
0.0
  0
SOLID
  5
2C7
100
AcDbEntity
  8
画層0
100
AcDbTrace
 10
180.992114701314
 20
99.8746667664357
 30
0.0
 11
179.123693319956
 21
99.5182463258983
 31
0.0
 12
179.190983005625
 22
99.4122147477075
 32
0.0
 13
179.190983005625
 23
99.4122147477075
 33
0.0
  0
SOLID
  5
2C8
100
AcDbEntity
  8
画層0
100
AcDbTrace
 10
180.992114701314
 20
99.8746667664357
 30
0.0
 11
179.190983005625
 21
99.4122147477075
 31
0.0
 12
179.271031372579
 22
99.3154528940713
 32
0.0
 13
179.271031372579
 23
99.3154528940713
 33
0.0
  0
SOLID
  5
2C9
100
AcDbEntity
  8
画層0
100
AcDbTrace
 10
180.992114701314
 20
99.8746667664357
 30
0.0
 11
179.271031372579
 21
99.3154528940713
 31
0.0
 12
179.362576010251
 22
99.2294867572242
 32
0.0
 13
179.362576010251
 23
99.2294867572242
 33
0.0
  0
SOLID
  5
2CA
100
AcDbEntity
  8
画層0
100
AcDbTrace
 10
180.992114701314
 20
99.8746667664357
 30
0.0
 11
179.362576010251
 21
99.2294867572242
 31
0.0
 12
179.464173205021
 22
99.155672074498
 32
0.0
 13
179.464173205021
 23
99.155672074498
 33
0.0
  0
SOLID
  5
2CB
100
AcDbEntity
  8
画層0
100
AcDbTrace
 10
180.992114701314
 20
99.8746667664357
 30
0.0
 11
179.464173205021
 21
99.155672074498
 31
0.0
 12
179.574220708435
 22
99.095172947534
 32
0.0
 13
179.574220708435
 23
99.095172947534
 33
0.0
  0
SOLID
  5
2CC
100
AcDbEntity
  8
画層0
100
AcDbTrace
 10
180.992114701314
 20
99.8746667664357
 30
0.0
 11
179.574220708435
 21
99.095172947534
 31
0.0
 12
179.690983005625
 22
99.0489434837048
 32
0.0
 13
179.690983005625
 23
99.0489434837048
 33
0.0
  0
SOLID
  5
2CD
100
AcDbEntity
  8
画層0
100
AcDbTrace
 10
180.992114701314
 20
99.8746667664357
 30
0.0
 11
179.690983005625
 21
99.0489434837048
 31
0.0
 12
179.812618685414
 22
99.0177127492713
 32
0.0
 13
179.812618685414
 23
99.0177127492713
 33
0.0
  0
SOLID
  5
2CE
100
AcDbEntity
  8
画層0
100
AcDbTrace
 10
180.992114701314
 20
99.8746667664357
 30
0.0
 11
179.812618685414
 21
99.0177127492713
 31
0.0
 12
179.937209480471
 22
99.0019732715717
 32
0.0
 13
179.937209480471
 23
99.0019732715717
 33
0.0
  0
SOLID
  5
2CF
100
AcDbEntity
  8
画層0
100
AcDbTrace
 10
180.992114701314
 20
99.8746667664357
 30
0.0
 11
179.937209480471
 21
99.0019732715717
 31
0.0
 12
180.062790519529
 22
99.0019732715717
 32
0.0
 13
180.062790519529
 23
99.0019732715717
 33
0.0
  0
SOLID
  5
2D0
100
AcDbEntity
  8
画層0
100
AcDbTrace
 10
180.992114701314
 20
99.8746667664357
 30
0.0
 11
180.062790519529
 21
99.0019732715717
 31
0.0
 12
180.187381314586
 22
99.0177127492713
 32
0.0
 13
180.187381314586
 23
99.0177127492713
 33
0.0
  0
SOLID
  5
2D1
100
AcDbEntity
  8
画層0
100
AcDbTrace
 10
180.992114701314
 20
99.8746667664357
 30
0.0
 11
180.187381314586
 21
99.0177127492713
 31
0.0
 12
180.309016994375
 22
99.0489434837048
 32
0.0
 13
180.309016994375
 23
99.0489434837048
 33
0.0
  0
SOLID
  5
2D2
100
AcDbEntity
  8
画層0
100
AcDbTrace
 10
180.992114701314
 20
99.8746667664357
 30
0.0
 11
180.309016994375
 21
99.0489434837048
 31
0.0
 12
180.425779291565
 22
99.095172947534
 32
0.0
 13
180.425779291565
 23
99.095172947534
 33
0.0
  0
SOLID
  5
2D3
100
AcDbEntity
  8
画層0
100
AcDbTrace
 10
180.992114701314
 20
99.8746667664357
 30
0.0
 11
180.425779291565
 21
99.095172947534
 31
0.0
 12
180.535826794979
 22
99.155672074498
 32
0.0
 13
180.535826794979
 23
99.155672074498
 33
0.0
  0
SOLID
  5
2D4
100
AcDbEntity
  8
画層0
100
AcDbTrace
 10
180.992114701314
 20
99.8746667664357
 30
0.0
 11
180.535826794979
 21
99.155672074498
 31
0.0
 12
180.637423989749
 22
99.2294867572242
 32
0.0
 13
180.637423989749
 23
99.2294867572242
 33
0.0
  0
SOLID
  5
2D5
100
AcDbEntity
  8
画層0
100
AcDbTrace
 10
180.992114701314
 20
99.8746667664357
 30
0.0
 11
180.637423989749
 21
99.2294867572242
 31
0.0
 12
180.728968627421
 22
99.3154528940713
 32
0.0
 13
180.728968627421
 23
99.3154528940713
 33
0.0
  0
SOLID
  5
2D6
100
AcDbEntity
  8
画層0
100
AcDbTrace
 10
180.992114701314
 20
99.8746667664357
 30
0.0
 11
180.728968627421
 21
99.3154528940713
 31
0.0
 12
180.809016994375
 22
99.4122147477075
 32
0.0
 13
180.809016994375
 23
99.4122147477075
 33
0.0
  0
SOLID
  5
2D7
100
AcDbEntity
  8
画層0
100
AcDbTrace
 10
180.992114701314
 20
99.8746667664357
 30
0.0
 11
180.809016994375
 21
99.4122147477075
 31
0.0
 12
180.876306680044
 22
99.5182463258983
 32
0.0
 13
180.876306680044
 23
99.5182463258983
 33
0.0
  0
SOLID
  5
2D8
100
AcDbEntity
  8
画層0
100
AcDbTrace
 10
180.992114701314
 20
99.8746667664357
 30
0.0
 11
180.876306680044
 21
99.5182463258983
 31
0.0
 12
180.929776485888
 22
99.6318754473153
 32
0.0
 13
180.929776485888
 23
99.6318754473153
 33
0.0
  0
SOLID
  5
2D9
100
AcDbEntity
  8
画層0
100
AcDbTrace
 10
180.992114701314
 20
99.8746667664357
 30
0.0
 11
180.929776485888
 21
99.6318754473153
 31
0.0
 12
180.968583161129
 22
99.7513101128352
 32
0.0
 13
180.968583161129
 23
99.7513101128352
 33
0.0
  0
CIRCLE
  5
2DA
100
AcDbEntity
  8
画層0
100
AcDbCircle
  6
CONTINUOUS
 10
150
 20
190
 40
2
  0
LINE
  5
2DB
100
AcDbEntity
  8
画層0
100
AcDbLine
  6
CONTINUOUS
 10
160
 20
190
 11
140
 21
190
  0
LINE
  5
2DC
100
AcDbEntity
  8
画層0
100
AcDbLine
  6
CONTINUOUS
 10
85
 20
15
 11
75
 21
15
  0
LINE
  5
2DD
100
AcDbEntity
  8
画層0
100
AcDbLine
  6
CONTINUOUS
 10
85
 20
15
 11
81.6666666666667
 21
10
  0
LINE
  5
2DE
100
AcDbEntity
  8
画層0
100
AcDbLine
  6
CONTINUOUS
 10
75
 20
10
 11
78.3333333333333
 21
15
  0
LINE
  5
2DF
100
AcDbEntity
  8
画層0
100
AcDbLine
  6
CONTINUOUS
 10
78.3333333333333
 20
10
 11
81.6666666666667
 21
15
  0
LINE
  5
2E0
100
AcDbEntity
  8
画層0
100
AcDbLine
  6
CONTINUOUS
 10
80
 20
20
 11
80
 21
15
  0
LINE
  5
2E1
100
AcDbEntity
  8
画層0
100
AcDbLine
  6
CONTINUOUS
 10
75
 20
14.5
 11
85
 21
14.5
  0
LINE
  5
2E2
100
AcDbEntity
  8
画層0
100
AcDbLine
  6
CONTINUOUS
 10
75
 20
15.5
 11
85
 21
15.5
  0
LWPOLYLINE
  5
2E3
100
AcDbEntity
  8
画層0
100
AcDbPolyline
  6
CONTINUOUS
 90
     4
 70
     1
 10
85
  20
14.5
 10
75
  20
14.5
 10
75
  20
15.5
 10
85
  20
15.5
  0
SOLID
  5
2E4
100
AcDbEntity
  8
画層0
100
AcDbTrace
 10
85
 20
14.5
 30
0.0
 11
75
 21
14.5
 31
0.0
 12
85
 22
15.5
 32
0.0
 13
75
 23
15.5
 33
0.0
  0
CIRCLE
  5
2E5
100
AcDbEntity
  8
画層0
100
AcDbCircle
  6
CONTINUOUS
 10
50
 20
120
 40
1
  0
SOLID
  5
2E6
100
AcDbEntity
  8
画層0
100
AcDbTrace
 10
50.9921147013145
 20
119.874666766436
 30
0.0
 11
51
 21
120
 31
0.0
 12
50.9921147013145
 22
120.125333233564
 32
0.0
 13
50.9921147013145
 23
120.125333233564
 33
0.0
  0
SOLID
  5
2E7
100
AcDbEntity
  8
画層0
100
AcDbTrace
 10
50.9921147013145
 20
119.874666766436
 30
0.0
 11
50.9921147013145
 21
120.125333233564
 31
0.0
 12
50.9685831611286
 22
120.248689887165
 32
0.0
 13
50.9685831611286
 23
120.248689887165
 33
0.0
  0
SOLID
  5
2E8
100
AcDbEntity
  8
画層0
100
AcDbTrace
 10
50.9921147013145
 20
119.874666766436
 30
0.0
 11
50.9685831611286
 21
120.248689887165
 31
0.0
 12
50.9297764858883
 22
120.368124552685
 32
0.0
 13
50.9297764858883
 23
120.368124552685
 33
0.0
  0
SOLID
  5
2E9
100
AcDbEntity
  8
画層0
100
AcDbTrace
 10
50.9921147013145
 20
119.874666766436
 30
0.0
 11
50.9297764858883
 21
120.368124552685
 31
0.0
 12
50.8763066800439
 22
120.481753674102
 32
0.0
 13
50.8763066800439
 23
120.481753674102
 33
0.0
  0
SOLID
  5
2EA
100
AcDbEntity
  8
画層0
100
AcDbTrace
 10
50.9921147013145
 20
119.874666766436
 30
0.0
 11
50.8763066800439
 21
120.481753674102
 31
0.0
 12
50.809016994375
 22
120.587785252292
 32
0.0
 13
50.809016994375
 23
120.587785252292
 33
0.0
  0
SOLID
  5
2EB
100
AcDbEntity
  8
画層0
100
AcDbTrace
 10
50.9921147013145
 20
119.874666766436
 30
0.0
 11
50.809016994375
 21
120.587785252292
 31
0.0
 12
50.7289686274214
 22
120.684547105929
 32
0.0
 13
50.7289686274214
 23
120.684547105929
 33
0.0
  0
SOLID
  5
2EC
100
AcDbEntity
  8
画層0
100
AcDbTrace
 10
50.9921147013145
 20
119.874666766436
 30
0.0
 11
50.7289686274214
 21
120.684547105929
 31
0.0
 12
50.6374239897487
 22
120.770513242776
 32
0.0
 13
50.6374239897487
 23
120.770513242776
 33
0.0
  0
SOLID
  5
2ED
100
AcDbEntity
  8
画層0
100
AcDbTrace
 10
50.9921147013145
 20
119.874666766436
 30
0.0
 11
50.6374239897487
 21
120.770513242776
 31
0.0
 12
50.535826794979
 22
120.844327925502
 32
0.0
 13
50.535826794979
 23
120.844327925502
 33
0.0
  0
SOLID
  5
2EE
100
AcDbEntity
  8
画層0
100
AcDbTrace
 10
50.9921147013145
 20
119.874666766436
 30
0.0
 11
50.535826794979
 21
120.844327925502
 31
0.0
 12
50.4257792915651
 22
120.904827052466
 32
0.0
 13
50.4257792915651
 23
120.904827052466
 33
0.0
  0
SOLID
  5
2EF
100
AcDbEntity
  8
画層0
100
AcDbTrace
 10
50.9921147013145
 20
119.874666766436
 30
0.0
 11
50.4257792915651
 21
120.904827052466
 31
0.0
 12
50.309016994375
 22
120.951056516295
 32
0.0
 13
50.309016994375
 23
120.951056516295
 33
0.0
  0
SOLID
  5
2F0
100
AcDbEntity
  8
画層0
100
AcDbTrace
 10
50.9921147013145
 20
119.874666766436
 30
0.0
 11
50.309016994375
 21
120.951056516295
 31
0.0
 12
50.1873813145857
 22
120.982287250729
 32
0.0
 13
50.1873813145857
 23
120.982287250729
 33
0.0
  0
SOLID
  5
2F1
100
AcDbEntity
  8
画層0
100
AcDbTrace
 10
50.9921147013145
 20
119.874666766436
 30
0.0
 11
50.1873813145857
 21
120.982287250729
 31
0.0
 12
50.0627905195293
 22
120.998026728428
 32
0.0
 13
50.0627905195293
 23
120.998026728428
 33
0.0
  0
SOLID
  5
2F2
100
AcDbEntity
  8
画層0
100
AcDbTrace
 10
50.9921147013145
 20
119.874666766436
 30
0.0
 11
50.0627905195293
 21
120.998026728428
 31
0.0
 12
49.9372094804707
 22
120.998026728428
 32
0.0
 13
49.9372094804707
 23
120.998026728428
 33
0.0
  0
SOLID
  5
2F3
100
AcDbEntity
  8
画層0
100
AcDbTrace
 10
50.9921147013145
 20
119.874666766436
 30
0.0
 11
49.9372094804707
 21
120.998026728428
 31
0.0
 12
49.8126186854143
 22
120.982287250729
 32
0.0
 13
49.8126186854143
 23
120.982287250729
 33
0.0
  0
SOLID
  5
2F4
100
AcDbEntity
  8
画層0
100
AcDbTrace
 10
50.9921147013145
 20
119.874666766436
 30
0.0
 11
49.8126186854143
 21
120.982287250729
 31
0.0
 12
49.690983005625
 22
120.951056516295
 32
0.0
 13
49.690983005625
 23
120.951056516295
 33
0.0
  0
SOLID
  5
2F5
100
AcDbEntity
  8
画層0
100
AcDbTrace
 10
50.9921147013145
 20
119.874666766436
 30
0.0
 11
49.690983005625
 21
120.951056516295
 31
0.0
 12
49.5742207084349
 22
120.904827052466
 32
0.0
 13
49.5742207084349
 23
120.904827052466
 33
0.0
  0
SOLID
  5
2F6
100
AcDbEntity
  8
画層0
100
AcDbTrace
 10
50.9921147013145
 20
119.874666766436
 30
0.0
 11
49.5742207084349
 21
120.904827052466
 31
0.0
 12
49.464173205021
 22
120.844327925502
 32
0.0
 13
49.464173205021
 23
120.844327925502
 33
0.0
  0
SOLID
  5
2F7
100
AcDbEntity
  8
画層0
100
AcDbTrace
 10
50.9921147013145
 20
119.874666766436
 30
0.0
 11
49.464173205021
 21
120.844327925502
 31
0.0
 12
49.3625760102513
 22
120.770513242776
 32
0.0
 13
49.3625760102513
 23
120.770513242776
 33
0.0
  0
SOLID
  5
2F8
100
AcDbEntity
  8
画層0
100
AcDbTrace
 10
50.9921147013145
 20
119.874666766436
 30
0.0
 11
49.3625760102513
 21
120.770513242776
 31
0.0
 12
49.2710313725786
 22
120.684547105929
 32
0.0
 13
49.2710313725786
 23
120.684547105929
 33
0.0
  0
SOLID
  5
2F9
100
AcDbEntity
  8
画層0
100
AcDbTrace
 10
50.9921147013145
 20
119.874666766436
 30
0.0
 11
49.2710313725786
 21
120.684547105929
 31
0.0
 12
49.190983005625
 22
120.587785252292
 32
0.0
 13
49.190983005625
 23
120.587785252292
 33
0.0
  0
SOLID
  5
2FA
100
AcDbEntity
  8
画層0
100
AcDbTrace
 10
50.9921147013145
 20
119.874666766436
 30
0.0
 11
49.190983005625
 21
120.587785252292
 31
0.0
 12
49.1236933199561
 22
120.481753674102
 32
0.0
 13
49.1236933199561
 23
120.481753674102
 33
0.0
  0
SOLID
  5
2FB
100
AcDbEntity
  8
画層0
100
AcDbTrace
 10
50.9921147013145
 20
119.874666766436
 30
0.0
 11
49.1236933199561
 21
120.481753674102
 31
0.0
 12
49.0702235141117
 22
120.368124552685
 32
0.0
 13
49.0702235141117
 23
120.368124552685
 33
0.0
  0
SOLID
  5
2FC
100
AcDbEntity
  8
画層0
100
AcDbTrace
 10
50.9921147013145
 20
119.874666766436
 30
0.0
 11
49.0702235141117
 21
120.368124552685
 31
0.0
 12
49.0314168388714
 22
120.248689887165
 32
0.0
 13
49.0314168388714
 23
120.248689887165
 33
0.0
  0
SOLID
  5
2FD
100
AcDbEntity
  8
画層0
100
AcDbTrace
 10
50.9921147013145
 20
119.874666766436
 30
0.0
 11
49.0314168388714
 21
120.248689887165
 31
0.0
 12
49.0078852986855
 22
120.125333233564
 32
0.0
 13
49.0078852986855
 23
120.125333233564
 33
0.0
  0
SOLID
  5
2FE
100
AcDbEntity
  8
画層0
100
AcDbTrace
 10
50.9921147013145
 20
119.874666766436
 30
0.0
 11
49.0078852986855
 21
120.125333233564
 31
0.0
 12
49
 22
120
 32
0.0
 13
49
 23
120
 33
0.0
  0
SOLID
  5
2FF
100
AcDbEntity
  8
画層0
100
AcDbTrace
 10
50.9921147013145
 20
119.874666766436
 30
0.0
 11
49
 21
120
 31
0.0
 12
49.0078852986855
 22
119.874666766436
 32
0.0
 13
49.0078852986855
 23
119.874666766436
 33
0.0
  0
SOLID
  5
300
100
AcDbEntity
  8
画層0
100
AcDbTrace
 10
50.9921147013145
 20
119.874666766436
 30
0.0
 11
49.0078852986855
 21
119.874666766436
 31
0.0
 12
49.0314168388714
 22
119.751310112835
 32
0.0
 13
49.0314168388714
 23
119.751310112835
 33
0.0
  0
SOLID
  5
301
100
AcDbEntity
  8
画層0
100
AcDbTrace
 10
50.9921147013145
 20
119.874666766436
 30
0.0
 11
49.0314168388714
 21
119.751310112835
 31
0.0
 12
49.0702235141118
 22
119.631875447315
 32
0.0
 13
49.0702235141118
 23
119.631875447315
 33
0.0
  0
SOLID
  5
302
100
AcDbEntity
  8
画層0
100
AcDbTrace
 10
50.9921147013145
 20
119.874666766436
 30
0.0
 11
49.0702235141118
 21
119.631875447315
 31
0.0
 12
49.1236933199561
 22
119.518246325898
 32
0.0
 13
49.1236933199561
 23
119.518246325898
 33
0.0
  0
SOLID
  5
303
100
AcDbEntity
  8
画層0
100
AcDbTrace
 10
50.9921147013145
 20
119.874666766436
 30
0.0
 11
49.1236933199561
 21
119.518246325898
 31
0.0
 12
49.1909830056251
 22
119.412214747708
 32
0.0
 13
49.1909830056251
 23
119.412214747708
 33
0.0
  0
SOLID
  5
304
100
AcDbEntity
  8
画層0
100
AcDbTrace
 10
50.9921147013145
 20
119.874666766436
 30
0.0
 11
49.1909830056251
 21
119.412214747708
 31
0.0
 12
49.2710313725786
 22
119.315452894071
 32
0.0
 13
49.2710313725786
 23
119.315452894071
 33
0.0
  0
SOLID
  5
305
100
AcDbEntity
  8
画層0
100
AcDbTrace
 10
50.9921147013145
 20
119.874666766436
 30
0.0
 11
49.2710313725786
 21
119.315452894071
 31
0.0
 12
49.3625760102513
 22
119.229486757224
 32
0.0
 13
49.3625760102513
 23
119.229486757224
 33
0.0
  0
SOLID
  5
306
100
AcDbEntity
  8
画層0
100
AcDbTrace
 10
50.9921147013145
 20
119.874666766436
 30
0.0
 11
49.3625760102513
 21
119.229486757224
 31
0.0
 12
49.464173205021
 22
119.155672074498
 32
0.0
 13
49.464173205021
 23
119.155672074498
 33
0.0
  0
SOLID
  5
307
100
AcDbEntity
  8
画層0
100
AcDbTrace
 10
50.9921147013145
 20
119.874666766436
 30
0.0
 11
49.464173205021
 21
119.155672074498
 31
0.0
 12
49.5742207084349
 22
119.095172947534
 32
0.0
 13
49.5742207084349
 23
119.095172947534
 33
0.0
  0
SOLID
  5
308
100
AcDbEntity
  8
画層0
100
AcDbTrace
 10
50.9921147013145
 20
119.874666766436
 30
0.0
 11
49.5742207084349
 21
119.095172947534
 31
0.0
 12
49.6909830056251
 22
119.048943483705
 32
0.0
 13
49.6909830056251
 23
119.048943483705
 33
0.0
  0
SOLID
  5
309
100
AcDbEntity
  8
画層0
100
AcDbTrace
 10
50.9921147013145
 20
119.874666766436
 30
0.0
 11
49.6909830056251
 21
119.048943483705
 31
0.0
 12
49.8126186854143
 22
119.017712749271
 32
0.0
 13
49.8126186854143
 23
119.017712749271
 33
0.0
  0
SOLID
  5
30A
100
AcDbEntity
  8
画層0
100
AcDbTrace
 10
50.9921147013145
 20
119.874666766436
 30
0.0
 11
49.8126186854143
 21
119.017712749271
 31
0.0
 12
49.9372094804707
 22
119.001973271572
 32
0.0
 13
49.9372094804707
 23
119.001973271572
 33
0.0
  0
SOLID
  5
30B
100
AcDbEntity
  8
画層0
100
AcDbTrace
 10
50.9921147013145
 20
119.874666766436
 30
0.0
 11
49.9372094804707
 21
119.001973271572
 31
0.0
 12
50.0627905195293
 22
119.001973271572
 32
0.0
 13
50.0627905195293
 23
119.001973271572
 33
0.0
  0
SOLID
  5
30C
100
AcDbEntity
  8
画層0
100
AcDbTrace
 10
50.9921147013145
 20
119.874666766436
 30
0.0
 11
50.0627905195293
 21
119.001973271572
 31
0.0
 12
50.1873813145857
 22
119.017712749271
 32
0.0
 13
50.1873813145857
 23
119.017712749271
 33
0.0
  0
SOLID
  5
30D
100
AcDbEntity
  8
画層0
100
AcDbTrace
 10
50.9921147013145
 20
119.874666766436
 30
0.0
 11
50.1873813145857
 21
119.017712749271
 31
0.0
 12
50.309016994375
 22
119.048943483705
 32
0.0
 13
50.309016994375
 23
119.048943483705
 33
0.0
  0
SOLID
  5
30E
100
AcDbEntity
  8
画層0
100
AcDbTrace
 10
50.9921147013145
 20
119.874666766436
 30
0.0
 11
50.309016994375
 21
119.048943483705
 31
0.0
 12
50.4257792915651
 22
119.095172947534
 32
0.0
 13
50.4257792915651
 23
119.095172947534
 33
0.0
  0
SOLID
  5
30F
100
AcDbEntity
  8
画層0
100
AcDbTrace
 10
50.9921147013145
 20
119.874666766436
 30
0.0
 11
50.4257792915651
 21
119.095172947534
 31
0.0
 12
50.535826794979
 22
119.155672074498
 32
0.0
 13
50.535826794979
 23
119.155672074498
 33
0.0
  0
SOLID
  5
310
100
AcDbEntity
  8
画層0
100
AcDbTrace
 10
50.9921147013145
 20
119.874666766436
 30
0.0
 11
50.535826794979
 21
119.155672074498
 31
0.0
 12
50.6374239897487
 22
119.229486757224
 32
0.0
 13
50.6374239897487
 23
119.229486757224
 33
0.0
  0
SOLID
  5
311
100
AcDbEntity
  8
画層0
100
AcDbTrace
 10
50.9921147013145
 20
119.874666766436
 30
0.0
 11
50.6374239897487
 21
119.229486757224
 31
0.0
 12
50.7289686274214
 22
119.315452894071
 32
0.0
 13
50.7289686274214
 23
119.315452894071
 33
0.0
  0
SOLID
  5
312
100
AcDbEntity
  8
画層0
100
AcDbTrace
 10
50.9921147013145
 20
119.874666766436
 30
0.0
 11
50.7289686274214
 21
119.315452894071
 31
0.0
 12
50.809016994375
 22
119.412214747708
 32
0.0
 13
50.809016994375
 23
119.412214747708
 33
0.0
  0
SOLID
  5
313
100
AcDbEntity
  8
画層0
100
AcDbTrace
 10
50.9921147013145
 20
119.874666766436
 30
0.0
 11
50.809016994375
 21
119.412214747708
 31
0.0
 12
50.8763066800439
 22
119.518246325898
 32
0.0
 13
50.8763066800439
 23
119.518246325898
 33
0.0
  0
SOLID
  5
314
100
AcDbEntity
  8
画層0
100
AcDbTrace
 10
50.9921147013145
 20
119.874666766436
 30
0.0
 11
50.8763066800439
 21
119.518246325898
 31
0.0
 12
50.9297764858883
 22
119.631875447315
 32
0.0
 13
50.9297764858883
 23
119.631875447315
 33
0.0
  0
SOLID
  5
315
100
AcDbEntity
  8
画層0
100
AcDbTrace
 10
50.9921147013145
 20
119.874666766436
 30
0.0
 11
50.9297764858883
 21
119.631875447315
 31
0.0
 12
50.9685831611286
 22
119.751310112835
 32
0.0
 13
50.9685831611286
 23
119.751310112835
 33
0.0
  0
CIRCLE
  5
316
100
AcDbEntity
  8
画層0
100
AcDbCircle
  6
CONTINUOUS
 10
50
 20
80
 40
1
  0
SOLID
  5
317
100
AcDbEntity
  8
画層0
100
AcDbTrace
 10
50.9921147013145
 20
79.8746667664357
 30
0.0
 11
51
 21
80
 31
0.0
 12
50.9921147013145
 22
80.1253332335643
 32
0.0
 13
50.9921147013145
 23
80.1253332335643
 33
0.0
  0
SOLID
  5
318
100
AcDbEntity
  8
画層0
100
AcDbTrace
 10
50.9921147013145
 20
79.8746667664357
 30
0.0
 11
50.9921147013145
 21
80.1253332335643
 31
0.0
 12
50.9685831611286
 22
80.2486898871649
 32
0.0
 13
50.9685831611286
 23
80.2486898871649
 33
0.0
  0
SOLID
  5
319
100
AcDbEntity
  8
画層0
100
AcDbTrace
 10
50.9921147013145
 20
79.8746667664357
 30
0.0
 11
50.9685831611286
 21
80.2486898871649
 31
0.0
 12
50.9297764858883
 22
80.3681245526847
 32
0.0
 13
50.9297764858883
 23
80.3681245526847
 33
0.0
  0
SOLID
  5
31A
100
AcDbEntity
  8
画層0
100
AcDbTrace
 10
50.9921147013145
 20
79.8746667664357
 30
0.0
 11
50.9297764858883
 21
80.3681245526847
 31
0.0
 12
50.8763066800439
 22
80.4817536741017
 32
0.0
 13
50.8763066800439
 23
80.4817536741017
 33
0.0
  0
SOLID
  5
31B
100
AcDbEntity
  8
画層0
100
AcDbTrace
 10
50.9921147013145
 20
79.8746667664357
 30
0.0
 11
50.8763066800439
 21
80.4817536741017
 31
0.0
 12
50.809016994375
 22
80.5877852522925
 32
0.0
 13
50.809016994375
 23
80.5877852522925
 33
0.0
  0
SOLID
  5
31C
100
AcDbEntity
  8
画層0
100
AcDbTrace
 10
50.9921147013145
 20
79.8746667664357
 30
0.0
 11
50.809016994375
 21
80.5877852522925
 31
0.0
 12
50.7289686274214
 22
80.6845471059287
 32
0.0
 13
50.7289686274214
 23
80.6845471059287
 33
0.0
  0
SOLID
  5
31D
100
AcDbEntity
  8
画層0
100
AcDbTrace
 10
50.9921147013145
 20
79.8746667664357
 30
0.0
 11
50.7289686274214
 21
80.6845471059287
 31
0.0
 12
50.6374239897487
 22
80.7705132427758
 32
0.0
 13
50.6374239897487
 23
80.7705132427758
 33
0.0
  0
SOLID
  5
31E
100
AcDbEntity
  8
画層0
100
AcDbTrace
 10
50.9921147013145
 20
79.8746667664357
 30
0.0
 11
50.6374239897487
 21
80.7705132427758
 31
0.0
 12
50.535826794979
 22
80.844327925502
 32
0.0
 13
50.535826794979
 23
80.844327925502
 33
0.0
  0
SOLID
  5
31F
100
AcDbEntity
  8
画層0
100
AcDbTrace
 10
50.9921147013145
 20
79.8746667664357
 30
0.0
 11
50.535826794979
 21
80.844327925502
 31
0.0
 12
50.4257792915651
 22
80.904827052466
 32
0.0
 13
50.4257792915651
 23
80.904827052466
 33
0.0
  0
SOLID
  5
320
100
AcDbEntity
  8
画層0
100
AcDbTrace
 10
50.9921147013145
 20
79.8746667664357
 30
0.0
 11
50.4257792915651
 21
80.904827052466
 31
0.0
 12
50.309016994375
 22
80.9510565162952
 32
0.0
 13
50.309016994375
 23
80.9510565162952
 33
0.0
  0
SOLID
  5
321
100
AcDbEntity
  8
画層0
100
AcDbTrace
 10
50.9921147013145
 20
79.8746667664357
 30
0.0
 11
50.309016994375
 21
80.9510565162952
 31
0.0
 12
50.1873813145857
 22
80.9822872507287
 32
0.0
 13
50.1873813145857
 23
80.9822872507287
 33
0.0
  0
SOLID
  5
322
100
AcDbEntity
  8
画層0
100
AcDbTrace
 10
50.9921147013145
 20
79.8746667664357
 30
0.0
 11
50.1873813145857
 21
80.9822872507287
 31
0.0
 12
50.0627905195293
 22
80.9980267284283
 32
0.0
 13
50.0627905195293
 23
80.9980267284283
 33
0.0
  0
SOLID
  5
323
100
AcDbEntity
  8
画層0
100
AcDbTrace
 10
50.9921147013145
 20
79.8746667664357
 30
0.0
 11
50.0627905195293
 21
80.9980267284283
 31
0.0
 12
49.9372094804707
 22
80.9980267284283
 32
0.0
 13
49.9372094804707
 23
80.9980267284283
 33
0.0
  0
SOLID
  5
324
100
AcDbEntity
  8
画層0
100
AcDbTrace
 10
50.9921147013145
 20
79.8746667664357
 30
0.0
 11
49.9372094804707
 21
80.9980267284283
 31
0.0
 12
49.8126186854143
 22
80.9822872507287
 32
0.0
 13
49.8126186854143
 23
80.9822872507287
 33
0.0
  0
SOLID
  5
325
100
AcDbEntity
  8
画層0
100
AcDbTrace
 10
50.9921147013145
 20
79.8746667664357
 30
0.0
 11
49.8126186854143
 21
80.9822872507287
 31
0.0
 12
49.690983005625
 22
80.9510565162952
 32
0.0
 13
49.690983005625
 23
80.9510565162952
 33
0.0
  0
SOLID
  5
326
100
AcDbEntity
  8
画層0
100
AcDbTrace
 10
50.9921147013145
 20
79.8746667664357
 30
0.0
 11
49.690983005625
 21
80.9510565162952
 31
0.0
 12
49.5742207084349
 22
80.904827052466
 32
0.0
 13
49.5742207084349
 23
80.904827052466
 33
0.0
  0
SOLID
  5
327
100
AcDbEntity
  8
画層0
100
AcDbTrace
 10
50.9921147013145
 20
79.8746667664357
 30
0.0
 11
49.5742207084349
 21
80.904827052466
 31
0.0
 12
49.464173205021
 22
80.844327925502
 32
0.0
 13
49.464173205021
 23
80.844327925502
 33
0.0
  0
SOLID
  5
328
100
AcDbEntity
  8
画層0
100
AcDbTrace
 10
50.9921147013145
 20
79.8746667664357
 30
0.0
 11
49.464173205021
 21
80.844327925502
 31
0.0
 12
49.3625760102513
 22
80.7705132427758
 32
0.0
 13
49.3625760102513
 23
80.7705132427758
 33
0.0
  0
SOLID
  5
329
100
AcDbEntity
  8
画層0
100
AcDbTrace
 10
50.9921147013145
 20
79.8746667664357
 30
0.0
 11
49.3625760102513
 21
80.7705132427758
 31
0.0
 12
49.2710313725786
 22
80.6845471059287
 32
0.0
 13
49.2710313725786
 23
80.6845471059287
 33
0.0
  0
SOLID
  5
32A
100
AcDbEntity
  8
画層0
100
AcDbTrace
 10
50.9921147013145
 20
79.8746667664357
 30
0.0
 11
49.2710313725786
 21
80.6845471059287
 31
0.0
 12
49.190983005625
 22
80.5877852522925
 32
0.0
 13
49.190983005625
 23
80.5877852522925
 33
0.0
  0
SOLID
  5
32B
100
AcDbEntity
  8
画層0
100
AcDbTrace
 10
50.9921147013145
 20
79.8746667664357
 30
0.0
 11
49.190983005625
 21
80.5877852522925
 31
0.0
 12
49.1236933199561
 22
80.4817536741017
 32
0.0
 13
49.1236933199561
 23
80.4817536741017
 33
0.0
  0
SOLID
  5
32C
100
AcDbEntity
  8
画層0
100
AcDbTrace
 10
50.9921147013145
 20
79.8746667664357
 30
0.0
 11
49.1236933199561
 21
80.4817536741017
 31
0.0
 12
49.0702235141117
 22
80.3681245526847
 32
0.0
 13
49.0702235141117
 23
80.3681245526847
 33
0.0
  0
SOLID
  5
32D
100
AcDbEntity
  8
画層0
100
AcDbTrace
 10
50.9921147013145
 20
79.8746667664357
 30
0.0
 11
49.0702235141117
 21
80.3681245526847
 31
0.0
 12
49.0314168388714
 22
80.2486898871649
 32
0.0
 13
49.0314168388714
 23
80.2486898871649
 33
0.0
  0
SOLID
  5
32E
100
AcDbEntity
  8
画層0
100
AcDbTrace
 10
50.9921147013145
 20
79.8746667664357
 30
0.0
 11
49.0314168388714
 21
80.2486898871649
 31
0.0
 12
49.0078852986855
 22
80.1253332335643
 32
0.0
 13
49.0078852986855
 23
80.1253332335643
 33
0.0
  0
SOLID
  5
32F
100
AcDbEntity
  8
画層0
100
AcDbTrace
 10
50.9921147013145
 20
79.8746667664357
 30
0.0
 11
49.0078852986855
 21
80.1253332335643
 31
0.0
 12
49
 22
80
 32
0.0
 13
49
 23
80
 33
0.0
  0
SOLID
  5
330
100
AcDbEntity
  8
画層0
100
AcDbTrace
 10
50.9921147013145
 20
79.8746667664357
 30
0.0
 11
49
 21
80
 31
0.0
 12
49.0078852986855
 22
79.8746667664357
 32
0.0
 13
49.0078852986855
 23
79.8746667664357
 33
0.0
  0
SOLID
  5
331
100
AcDbEntity
  8
画層0
100
AcDbTrace
 10
50.9921147013145
 20
79.8746667664357
 30
0.0
 11
49.0078852986855
 21
79.8746667664357
 31
0.0
 12
49.0314168388714
 22
79.7513101128351
 32
0.0
 13
49.0314168388714
 23
79.7513101128351
 33
0.0
  0
SOLID
  5
332
100
AcDbEntity
  8
画層0
100
AcDbTrace
 10
50.9921147013145
 20
79.8746667664357
 30
0.0
 11
49.0314168388714
 21
79.7513101128351
 31
0.0
 12
49.0702235141118
 22
79.6318754473153
 32
0.0
 13
49.0702235141118
 23
79.6318754473153
 33
0.0
  0
SOLID
  5
333
100
AcDbEntity
  8
画層0
100
AcDbTrace
 10
50.9921147013145
 20
79.8746667664357
 30
0.0
 11
49.0702235141118
 21
79.6318754473153
 31
0.0
 12
49.1236933199561
 22
79.5182463258983
 32
0.0
 13
49.1236933199561
 23
79.5182463258983
 33
0.0
  0
SOLID
  5
334
100
AcDbEntity
  8
画層0
100
AcDbTrace
 10
50.9921147013145
 20
79.8746667664357
 30
0.0
 11
49.1236933199561
 21
79.5182463258983
 31
0.0
 12
49.1909830056251
 22
79.4122147477075
 32
0.0
 13
49.1909830056251
 23
79.4122147477075
 33
0.0
  0
SOLID
  5
335
100
AcDbEntity
  8
画層0
100
AcDbTrace
 10
50.9921147013145
 20
79.8746667664357
 30
0.0
 11
49.1909830056251
 21
79.4122147477075
 31
0.0
 12
49.2710313725786
 22
79.3154528940713
 32
0.0
 13
49.2710313725786
 23
79.3154528940713
 33
0.0
  0
SOLID
  5
336
100
AcDbEntity
  8
画層0
100
AcDbTrace
 10
50.9921147013145
 20
79.8746667664357
 30
0.0
 11
49.2710313725786
 21
79.3154528940713
 31
0.0
 12
49.3625760102513
 22
79.2294867572242
 32
0.0
 13
49.3625760102513
 23
79.2294867572242
 33
0.0
  0
SOLID
  5
337
100
AcDbEntity
  8
画層0
100
AcDbTrace
 10
50.9921147013145
 20
79.8746667664357
 30
0.0
 11
49.3625760102513
 21
79.2294867572242
 31
0.0
 12
49.464173205021
 22
79.155672074498
 32
0.0
 13
49.464173205021
 23
79.155672074498
 33
0.0
  0
SOLID
  5
338
100
AcDbEntity
  8
画層0
100
AcDbTrace
 10
50.9921147013145
 20
79.8746667664357
 30
0.0
 11
49.464173205021
 21
79.155672074498
 31
0.0
 12
49.5742207084349
 22
79.095172947534
 32
0.0
 13
49.5742207084349
 23
79.095172947534
 33
0.0
  0
SOLID
  5
339
100
AcDbEntity
  8
画層0
100
AcDbTrace
 10
50.9921147013145
 20
79.8746667664357
 30
0.0
 11
49.5742207084349
 21
79.095172947534
 31
0.0
 12
49.6909830056251
 22
79.0489434837048
 32
0.0
 13
49.6909830056251
 23
79.0489434837048
 33
0.0
  0
SOLID
  5
33A
100
AcDbEntity
  8
画層0
100
AcDbTrace
 10
50.9921147013145
 20
79.8746667664357
 30
0.0
 11
49.6909830056251
 21
79.0489434837048
 31
0.0
 12
49.8126186854143
 22
79.0177127492713
 32
0.0
 13
49.8126186854143
 23
79.0177127492713
 33
0.0
  0
SOLID
  5
33B
100
AcDbEntity
  8
画層0
100
AcDbTrace
 10
50.9921147013145
 20
79.8746667664357
 30
0.0
 11
49.8126186854143
 21
79.0177127492713
 31
0.0
 12
49.9372094804707
 22
79.0019732715717
 32
0.0
 13
49.9372094804707
 23
79.0019732715717
 33
0.0
  0
SOLID
  5
33C
100
AcDbEntity
  8
画層0
100
AcDbTrace
 10
50.9921147013145
 20
79.8746667664357
 30
0.0
 11
49.9372094804707
 21
79.0019732715717
 31
0.0
 12
50.0627905195293
 22
79.0019732715717
 32
0.0
 13
50.0627905195293
 23
79.0019732715717
 33
0.0
  0
SOLID
  5
33D
100
AcDbEntity
  8
画層0
100
AcDbTrace
 10
50.9921147013145
 20
79.8746667664357
 30
0.0
 11
50.0627905195293
 21
79.0019732715717
 31
0.0
 12
50.1873813145857
 22
79.0177127492713
 32
0.0
 13
50.1873813145857
 23
79.0177127492713
 33
0.0
  0
SOLID
  5
33E
100
AcDbEntity
  8
画層0
100
AcDbTrace
 10
50.9921147013145
 20
79.8746667664357
 30
0.0
 11
50.1873813145857
 21
79.0177127492713
 31
0.0
 12
50.309016994375
 22
79.0489434837048
 32
0.0
 13
50.309016994375
 23
79.0489434837048
 33
0.0
  0
SOLID
  5
33F
100
AcDbEntity
  8
画層0
100
AcDbTrace
 10
50.9921147013145
 20
79.8746667664357
 30
0.0
 11
50.309016994375
 21
79.0489434837048
 31
0.0
 12
50.4257792915651
 22
79.095172947534
 32
0.0
 13
50.4257792915651
 23
79.095172947534
 33
0.0
  0
SOLID
  5
340
100
AcDbEntity
  8
画層0
100
AcDbTrace
 10
50.9921147013145
 20
79.8746667664357
 30
0.0
 11
50.4257792915651
 21
79.095172947534
 31
0.0
 12
50.535826794979
 22
79.155672074498
 32
0.0
 13
50.535826794979
 23
79.155672074498
 33
0.0
  0
SOLID
  5
341
100
AcDbEntity
  8
画層0
100
AcDbTrace
 10
50.9921147013145
 20
79.8746667664357
 30
0.0
 11
50.535826794979
 21
79.155672074498
 31
0.0
 12
50.6374239897487
 22
79.2294867572242
 32
0.0
 13
50.6374239897487
 23
79.2294867572242
 33
0.0
  0
SOLID
  5
342
100
AcDbEntity
  8
画層0
100
AcDbTrace
 10
50.9921147013145
 20
79.8746667664357
 30
0.0
 11
50.6374239897487
 21
79.2294867572242
 31
0.0
 12
50.7289686274214
 22
79.3154528940713
 32
0.0
 13
50.7289686274214
 23
79.3154528940713
 33
0.0
  0
SOLID
  5
343
100
AcDbEntity
  8
画層0
100
AcDbTrace
 10
50.9921147013145
 20
79.8746667664357
 30
0.0
 11
50.7289686274214
 21
79.3154528940713
 31
0.0
 12
50.809016994375
 22
79.4122147477075
 32
0.0
 13
50.809016994375
 23
79.4122147477075
 33
0.0
  0
SOLID
  5
344
100
AcDbEntity
  8
画層0
100
AcDbTrace
 10
50.9921147013145
 20
79.8746667664357
 30
0.0
 11
50.809016994375
 21
79.4122147477075
 31
0.0
 12
50.8763066800439
 22
79.5182463258983
 32
0.0
 13
50.8763066800439
 23
79.5182463258983
 33
0.0
  0
SOLID
  5
345
100
AcDbEntity
  8
画層0
100
AcDbTrace
 10
50.9921147013145
 20
79.8746667664357
 30
0.0
 11
50.8763066800439
 21
79.5182463258983
 31
0.0
 12
50.9297764858883
 22
79.6318754473153
 32
0.0
 13
50.9297764858883
 23
79.6318754473153
 33
0.0
  0
SOLID
  5
346
100
AcDbEntity
  8
画層0
100
AcDbTrace
 10
50.9921147013145
 20
79.8746667664357
 30
0.0
 11
50.9297764858883
 21
79.6318754473153
 31
0.0
 12
50.9685831611286
 22
79.7513101128352
 32
0.0
 13
50.9685831611286
 23
79.7513101128352
 33
0.0
  0
MTEXT
  5
347
100
AcDbEntity
  8
画層0
100
AcDbMText
 10
200
 20
20
 40
4
 41
  0.0
  1
CMOS Schmitt Trigger\Phttp://www.k2.dion.ne.jp/~yht/rss/rss.xml
  7
Font_0
  0
ENDSEC
  0
SECTION
  2
OBJECTS
  0
DICTIONARY
  5
348
100
AcDbDictionary
  3
ACAD_GROUP
350
349
  3
ACAD_MLINESTYLE
350
34A
  0
DICTIONARY
  5
349
102
{ACAD_REACTORS
330
348
102
}
100
AcDbDictionary
  0
DICTIONARY
  5
34A
102
{ACAD_REACTORS
330
348
102
}
100
AcDbDictionary
  3
STANDARD
350
34B
  0
MLINESTYLE
  5
34B
102
{ACAD_REACTORS
330
34A
102
}
100
AcDbMlineStyle
  2
Standard
 70
     0
  3

 62
     0
 51
90.0
 52
90.0
 71
     2
 49
0.5
 62
   256
  6
ByLayer
 49
-0.5
 62
   256
  6
ByLayer
  0
ENDSEC
  0
EOF
