999
Outputted By AR_CAD Ver.1.5.4a
  0
SECTION
  2
HEADER
  9
$ACADVER
  1
AC1014
  9
$DWGCODEPAGE
  3
ANSI_932
  9
$EXTMIN
 10
0
 20
0
  9
$EXTMAX
 10
297
 20
210
  9
$INSBASE
 10
0.0
 20
0.0
 30
0.0
  9
$HANDLING
 70
     1
  9
$HANDSEED
  5
2D5
  9
$LTSCALE
 40
1
  0
ENDSEC
  0
SECTION
  2
TABLES
  0
TABLE
  2
VPORT
  5
1
100
AcDbSymbolTable
 70
     1
  0
VPORT
  5
30
100
AcDbSymbolTableRecord
100
AcDbViewportTableRecord
  2
*ACTIVE
 70
     0
 10
0.0
 20
0.0
 11
1.0
 21
1.0
 12
210.0
 22
148.5
 13
0.0
 23
0.0
 14
10.0
 24
10.0
 15
10.0
 25
10.0
 16
0.0
 26
0.0
 36
1.0
 17
0.0
 27
0.0
 37
0.0
 40
302.94
 41
1.333333
 42
50.0
 43
0.0
 44
0.0
 50
0.0
 51
0.0
 71
     0
 72
   100
 73
     1
 74
     1
 75
     0
 76
     0
 77
     0
 78
     0
  0
ENDTAB
  0
TABLE
  2
LTYPE
  5
2
100
AcDbSymbolTable
 70
     7
  0
LTYPE
  5
31
100
AcDbSymbolTableRecord
100
AcDbLinetypeTableRecord
  2
BYBLOCK
 70
    64
 3

 72
    65
 73
    0
 40
    0
  0
LTYPE
  5
32
100
AcDbSymbolTableRecord
100
AcDbLinetypeTableRecord
  2
BYLAYER
 70
    64
 3

 72
    65
 73
    0
 40
    0
  0
LTYPE
  5
33
100
AcDbSymbolTableRecord
100
AcDbLinetypeTableRecord
  2
CONTINUOUS
 70
    64
 3
CONTINUOUS
 72
    65
 73
    0
 40
    0
  0
LTYPE
  5
34
100
AcDbSymbolTableRecord
100
AcDbLinetypeTableRecord
  2
DASHED
 70
    64
 3

 72
    65
 73
    2
 40
    3.5
 49
    2.917
 74
    0
 49
    -0.583
 74
    0
  0
LTYPE
  5
35
100
AcDbSymbolTableRecord
100
AcDbLinetypeTableRecord
  2
DOT
 70
    64
 3

 72
    65
 73
    2
 40
    0.5
 49
    0.25
 74
    0
 49
    -0.25
 74
    0
  0
LTYPE
  5
36
100
AcDbSymbolTableRecord
100
AcDbLinetypeTableRecord
  2
DASHDOT
 70
    64
 3

 72
    65
 73
    4
 40
    3.5
 49
    1.84147386461011
 74
    0
 49
    -0.552842045129963
 74
    0
 49
    0.552842045129963
 74
    0
 49
    -0.552842045129963
 74
    0
  0
LTYPE
  5
37
100
AcDbSymbolTableRecord
100
AcDbLinetypeTableRecord
  2
DIVIDE
 70
    64
 3

 72
    65
 73
    6
 40
    3.5
 49
    1.4
 74
    0
 49
    -0.42
 74
    0
 49
    0.42
 74
    0
 49
    -0.42
 74
    0
 49
    0.42
 74
    0
 49
    -0.42
 74
    0
  0
LTYPE
  5
38
100
AcDbSymbolTableRecord
100
AcDbLinetypeTableRecord
  2
HIDDEN
 70
    64
 3

 72
    65
 73
    2
 40
    4
 49
    2
 74
    0
 49
    -2
 74
    0
  0
ENDTAB
  0
TABLE
  2
LAYER
  5
3
100
AcDbSymbolTable
 70
   257
  0
LAYER
  5
39
100
AcDbSymbolTableRecord
100
AcDbLayerTableRecord
  2
画層0
 70
    0
 62
7
  6
CONTINUOUS
  0
LAYER
  5
3A
100
AcDbSymbolTableRecord
100
AcDbLayerTableRecord
  2
画層1
 70
    0
 62
3
  6
CONTINUOUS
  0
LAYER
  5
3B
100
AcDbSymbolTableRecord
100
AcDbLayerTableRecord
  2
画層2
 70
    0
 62
9
  6
CONTINUOUS
  0
LAYER
  5
3C
100
AcDbSymbolTableRecord
100
AcDbLayerTableRecord
  2
画層3
 70
    0
 62
7
  6
CONTINUOUS
  0
LAYER
  5
3D
100
AcDbSymbolTableRecord
100
AcDbLayerTableRecord
  2
画層4
 70
    0
 62
6
  6
CONTINUOUS
  0
LAYER
  5
3E
100
AcDbSymbolTableRecord
100
AcDbLayerTableRecord
  2
画層5
 70
    0
 62
1
  6
CONTINUOUS
  0
LAYER
  5
3F
100
AcDbSymbolTableRecord
100
AcDbLayerTableRecord
  2
画層6
 70
    0
 62
7
  6
CONTINUOUS
  0
LAYER
  5
40
100
AcDbSymbolTableRecord
100
AcDbLayerTableRecord
  2
画層7
 70
    0
 62
51
  6
CONTINUOUS
  0
LAYER
  5
41
100
AcDbSymbolTableRecord
100
AcDbLayerTableRecord
  2
画層8
 70
    0
 62
61
  6
CONTINUOUS
  0
LAYER
  5
42
100
AcDbSymbolTableRecord
100
AcDbLayerTableRecord
  2
画層9
 70
    0
 62
111
  6
CONTINUOUS
  0
LAYER
  5
43
100
AcDbSymbolTableRecord
100
AcDbLayerTableRecord
  2
画層10
 70
    0
 62
91
  6
CONTINUOUS
  0
LAYER
  5
44
100
AcDbSymbolTableRecord
100
AcDbLayerTableRecord
  2
画層11
 70
    0
 62
131
  6
CONTINUOUS
  0
LAYER
  5
45
100
AcDbSymbolTableRecord
100
AcDbLayerTableRecord
  2
画層12
 70
    0
 62
161
  6
CONTINUOUS
  0
LAYER
  5
46
100
AcDbSymbolTableRecord
100
AcDbLayerTableRecord
  2
画層13
 70
    0
 62
5
  6
CONTINUOUS
  0
LAYER
  5
47
100
AcDbSymbolTableRecord
100
AcDbLayerTableRecord
  2
画層14
 70
    0
 62
7
  6
CONTINUOUS
  0
LAYER
  5
48
100
AcDbSymbolTableRecord
100
AcDbLayerTableRecord
  2
画層15
 70
    0
 62
11
  6
CONTINUOUS
  0
LAYER
  5
49
100
AcDbSymbolTableRecord
100
AcDbLayerTableRecord
  2
画層16
 70
    0
 62
7
  6
CONTINUOUS
  0
LAYER
  5
4A
100
AcDbSymbolTableRecord
100
AcDbLayerTableRecord
  2
画層17
 70
    0
 62
70
  6
CONTINUOUS
  0
LAYER
  5
4B
100
AcDbSymbolTableRecord
100
AcDbLayerTableRecord
  2
画層18
 70
    0
 62
211
  6
CONTINUOUS
  0
LAYER
  5
4C
100
AcDbSymbolTableRecord
100
AcDbLayerTableRecord
  2
画層19
 70
    0
 62
137
  6
CONTINUOUS
  0
LAYER
  5
4D
100
AcDbSymbolTableRecord
100
AcDbLayerTableRecord
  2
画層20
 70
    0
 62
4
  6
CONTINUOUS
  0
LAYER
  5
4E
100
AcDbSymbolTableRecord
100
AcDbLayerTableRecord
  2
画層21
 70
    0
 62
131
  6
CONTINUOUS
  0
LAYER
  5
4F
100
AcDbSymbolTableRecord
100
AcDbLayerTableRecord
  2
画層22
 70
    0
 62
4
  6
CONTINUOUS
  0
LAYER
  5
50
100
AcDbSymbolTableRecord
100
AcDbLayerTableRecord
  2
画層23
 70
    0
 62
4
  6
CONTINUOUS
  0
LAYER
  5
51
100
AcDbSymbolTableRecord
100
AcDbLayerTableRecord
  2
画層24
 70
    0
 62
7
  6
CONTINUOUS
  0
LAYER
  5
52
100
AcDbSymbolTableRecord
100
AcDbLayerTableRecord
  2
画層25
 70
    0
 62
7
  6
CONTINUOUS
  0
LAYER
  5
53
100
AcDbSymbolTableRecord
100
AcDbLayerTableRecord
  2
画層26
 70
    0
 62
7
  6
CONTINUOUS
  0
LAYER
  5
54
100
AcDbSymbolTableRecord
100
AcDbLayerTableRecord
  2
画層27
 70
    0
 62
7
  6
CONTINUOUS
  0
LAYER
  5
55
100
AcDbSymbolTableRecord
100
AcDbLayerTableRecord
  2
画層28
 70
    0
 62
7
  6
CONTINUOUS
  0
LAYER
  5
56
100
AcDbSymbolTableRecord
100
AcDbLayerTableRecord
  2
画層29
 70
    0
 62
7
  6
CONTINUOUS
  0
LAYER
  5
57
100
AcDbSymbolTableRecord
100
AcDbLayerTableRecord
  2
画層30
 70
    0
 62
7
  6
CONTINUOUS
  0
LAYER
  5
58
100
AcDbSymbolTableRecord
100
AcDbLayerTableRecord
  2
画層31
 70
    0
 62
7
  6
CONTINUOUS
  0
LAYER
  5
59
100
AcDbSymbolTableRecord
100
AcDbLayerTableRecord
  2
画層32
 70
    0
 62
7
  6
CONTINUOUS
  0
LAYER
  5
5A
100
AcDbSymbolTableRecord
100
AcDbLayerTableRecord
  2
画層33
 70
    0
 62
7
  6
CONTINUOUS
  0
LAYER
  5
5B
100
AcDbSymbolTableRecord
100
AcDbLayerTableRecord
  2
画層34
 70
    0
 62
7
  6
CONTINUOUS
  0
LAYER
  5
5C
100
AcDbSymbolTableRecord
100
AcDbLayerTableRecord
  2
画層35
 70
    0
 62
7
  6
CONTINUOUS
  0
LAYER
  5
5D
100
AcDbSymbolTableRecord
100
AcDbLayerTableRecord
  2
画層36
 70
    0
 62
7
  6
CONTINUOUS
  0
LAYER
  5
5E
100
AcDbSymbolTableRecord
100
AcDbLayerTableRecord
  2
画層37
 70
    0
 62
7
  6
CONTINUOUS
  0
LAYER
  5
5F
100
AcDbSymbolTableRecord
100
AcDbLayerTableRecord
  2
画層38
 70
    0
 62
7
  6
CONTINUOUS
  0
LAYER
  5
60
100
AcDbSymbolTableRecord
100
AcDbLayerTableRecord
  2
画層39
 70
    0
 62
7
  6
CONTINUOUS
  0
LAYER
  5
61
100
AcDbSymbolTableRecord
100
AcDbLayerTableRecord
  2
画層40
 70
    0
 62
7
  6
CONTINUOUS
  0
LAYER
  5
62
100
AcDbSymbolTableRecord
100
AcDbLayerTableRecord
  2
画層41
 70
    0
 62
7
  6
CONTINUOUS
  0
LAYER
  5
63
100
AcDbSymbolTableRecord
100
AcDbLayerTableRecord
  2
画層42
 70
    0
 62
7
  6
CONTINUOUS
  0
LAYER
  5
64
100
AcDbSymbolTableRecord
100
AcDbLayerTableRecord
  2
画層43
 70
    0
 62
7
  6
CONTINUOUS
  0
LAYER
  5
65
100
AcDbSymbolTableRecord
100
AcDbLayerTableRecord
  2
画層44
 70
    0
 62
7
  6
CONTINUOUS
  0
LAYER
  5
66
100
AcDbSymbolTableRecord
100
AcDbLayerTableRecord
  2
画層45
 70
    0
 62
7
  6
CONTINUOUS
  0
LAYER
  5
67
100
AcDbSymbolTableRecord
100
AcDbLayerTableRecord
  2
画層46
 70
    0
 62
7
  6
CONTINUOUS
  0
LAYER
  5
68
100
AcDbSymbolTableRecord
100
AcDbLayerTableRecord
  2
画層47
 70
    0
 62
7
  6
CONTINUOUS
  0
LAYER
  5
69
100
AcDbSymbolTableRecord
100
AcDbLayerTableRecord
  2
画層48
 70
    0
 62
7
  6
CONTINUOUS
  0
LAYER
  5
6A
100
AcDbSymbolTableRecord
100
AcDbLayerTableRecord
  2
画層49
 70
    0
 62
7
  6
CONTINUOUS
  0
LAYER
  5
6B
100
AcDbSymbolTableRecord
100
AcDbLayerTableRecord
  2
画層50
 70
    0
 62
7
  6
CONTINUOUS
  0
LAYER
  5
6C
100
AcDbSymbolTableRecord
100
AcDbLayerTableRecord
  2
画層51
 70
    0
 62
7
  6
CONTINUOUS
  0
LAYER
  5
6D
100
AcDbSymbolTableRecord
100
AcDbLayerTableRecord
  2
画層52
 70
    0
 62
7
  6
CONTINUOUS
  0
LAYER
  5
6E
100
AcDbSymbolTableRecord
100
AcDbLayerTableRecord
  2
画層53
 70
    0
 62
7
  6
CONTINUOUS
  0
LAYER
  5
6F
100
AcDbSymbolTableRecord
100
AcDbLayerTableRecord
  2
画層54
 70
    0
 62
7
  6
CONTINUOUS
  0
LAYER
  5
70
100
AcDbSymbolTableRecord
100
AcDbLayerTableRecord
  2
画層55
 70
    0
 62
7
  6
CONTINUOUS
  0
LAYER
  5
71
100
AcDbSymbolTableRecord
100
AcDbLayerTableRecord
  2
画層56
 70
    0
 62
7
  6
CONTINUOUS
  0
LAYER
  5
72
100
AcDbSymbolTableRecord
100
AcDbLayerTableRecord
  2
画層57
 70
    0
 62
7
  6
CONTINUOUS
  0
LAYER
  5
73
100
AcDbSymbolTableRecord
100
AcDbLayerTableRecord
  2
画層58
 70
    0
 62
7
  6
CONTINUOUS
  0
LAYER
  5
74
100
AcDbSymbolTableRecord
100
AcDbLayerTableRecord
  2
画層59
 70
    0
 62
7
  6
CONTINUOUS
  0
LAYER
  5
75
100
AcDbSymbolTableRecord
100
AcDbLayerTableRecord
  2
画層60
 70
    0
 62
7
  6
CONTINUOUS
  0
LAYER
  5
76
100
AcDbSymbolTableRecord
100
AcDbLayerTableRecord
  2
画層61
 70
    0
 62
7
  6
CONTINUOUS
  0
LAYER
  5
77
100
AcDbSymbolTableRecord
100
AcDbLayerTableRecord
  2
画層62
 70
    0
 62
7
  6
CONTINUOUS
  0
LAYER
  5
78
100
AcDbSymbolTableRecord
100
AcDbLayerTableRecord
  2
画層63
 70
    0
 62
7
  6
CONTINUOUS
  0
LAYER
  5
79
100
AcDbSymbolTableRecord
100
AcDbLayerTableRecord
  2
画層64
 70
    0
 62
7
  6
CONTINUOUS
  0
LAYER
  5
7A
100
AcDbSymbolTableRecord
100
AcDbLayerTableRecord
  2
画層65
 70
    0
 62
7
  6
CONTINUOUS
  0
LAYER
  5
7B
100
AcDbSymbolTableRecord
100
AcDbLayerTableRecord
  2
画層66
 70
    0
 62
7
  6
CONTINUOUS
  0
LAYER
  5
7C
100
AcDbSymbolTableRecord
100
AcDbLayerTableRecord
  2
画層67
 70
    0
 62
7
  6
CONTINUOUS
  0
LAYER
  5
7D
100
AcDbSymbolTableRecord
100
AcDbLayerTableRecord
  2
画層68
 70
    0
 62
7
  6
CONTINUOUS
  0
LAYER
  5
7E
100
AcDbSymbolTableRecord
100
AcDbLayerTableRecord
  2
画層69
 70
    0
 62
7
  6
CONTINUOUS
  0
LAYER
  5
7F
100
AcDbSymbolTableRecord
100
AcDbLayerTableRecord
  2
画層70
 70
    0
 62
7
  6
CONTINUOUS
  0
LAYER
  5
80
100
AcDbSymbolTableRecord
100
AcDbLayerTableRecord
  2
画層71
 70
    0
 62
7
  6
CONTINUOUS
  0
LAYER
  5
81
100
AcDbSymbolTableRecord
100
AcDbLayerTableRecord
  2
画層72
 70
    0
 62
7
  6
CONTINUOUS
  0
LAYER
  5
82
100
AcDbSymbolTableRecord
100
AcDbLayerTableRecord
  2
画層73
 70
    0
 62
7
  6
CONTINUOUS
  0
LAYER
  5
83
100
AcDbSymbolTableRecord
100
AcDbLayerTableRecord
  2
画層74
 70
    0
 62
7
  6
CONTINUOUS
  0
LAYER
  5
84
100
AcDbSymbolTableRecord
100
AcDbLayerTableRecord
  2
画層75
 70
    0
 62
7
  6
CONTINUOUS
  0
LAYER
  5
85
100
AcDbSymbolTableRecord
100
AcDbLayerTableRecord
  2
画層76
 70
    0
 62
7
  6
CONTINUOUS
  0
LAYER
  5
86
100
AcDbSymbolTableRecord
100
AcDbLayerTableRecord
  2
画層77
 70
    0
 62
7
  6
CONTINUOUS
  0
LAYER
  5
87
100
AcDbSymbolTableRecord
100
AcDbLayerTableRecord
  2
画層78
 70
    0
 62
7
  6
CONTINUOUS
  0
LAYER
  5
88
100
AcDbSymbolTableRecord
100
AcDbLayerTableRecord
  2
画層79
 70
    0
 62
7
  6
CONTINUOUS
  0
LAYER
  5
89
100
AcDbSymbolTableRecord
100
AcDbLayerTableRecord
  2
画層80
 70
    0
 62
7
  6
CONTINUOUS
  0
LAYER
  5
8A
100
AcDbSymbolTableRecord
100
AcDbLayerTableRecord
  2
画層81
 70
    0
 62
7
  6
CONTINUOUS
  0
LAYER
  5
8B
100
AcDbSymbolTableRecord
100
AcDbLayerTableRecord
  2
画層82
 70
    0
 62
7
  6
CONTINUOUS
  0
LAYER
  5
8C
100
AcDbSymbolTableRecord
100
AcDbLayerTableRecord
  2
画層83
 70
    0
 62
7
  6
CONTINUOUS
  0
LAYER
  5
8D
100
AcDbSymbolTableRecord
100
AcDbLayerTableRecord
  2
画層84
 70
    0
 62
7
  6
CONTINUOUS
  0
LAYER
  5
8E
100
AcDbSymbolTableRecord
100
AcDbLayerTableRecord
  2
画層85
 70
    0
 62
7
  6
CONTINUOUS
  0
LAYER
  5
8F
100
AcDbSymbolTableRecord
100
AcDbLayerTableRecord
  2
画層86
 70
    0
 62
7
  6
CONTINUOUS
  0
LAYER
  5
90
100
AcDbSymbolTableRecord
100
AcDbLayerTableRecord
  2
画層87
 70
    0
 62
7
  6
CONTINUOUS
  0
LAYER
  5
91
100
AcDbSymbolTableRecord
100
AcDbLayerTableRecord
  2
画層88
 70
    0
 62
7
  6
CONTINUOUS
  0
LAYER
  5
92
100
AcDbSymbolTableRecord
100
AcDbLayerTableRecord
  2
画層89
 70
    0
 62
7
  6
CONTINUOUS
  0
LAYER
  5
93
100
AcDbSymbolTableRecord
100
AcDbLayerTableRecord
  2
画層90
 70
    0
 62
7
  6
CONTINUOUS
  0
LAYER
  5
94
100
AcDbSymbolTableRecord
100
AcDbLayerTableRecord
  2
画層91
 70
    0
 62
7
  6
CONTINUOUS
  0
LAYER
  5
95
100
AcDbSymbolTableRecord
100
AcDbLayerTableRecord
  2
画層92
 70
    0
 62
7
  6
CONTINUOUS
  0
LAYER
  5
96
100
AcDbSymbolTableRecord
100
AcDbLayerTableRecord
  2
画層93
 70
    0
 62
7
  6
CONTINUOUS
  0
LAYER
  5
97
100
AcDbSymbolTableRecord
100
AcDbLayerTableRecord
  2
画層94
 70
    0
 62
7
  6
CONTINUOUS
  0
LAYER
  5
98
100
AcDbSymbolTableRecord
100
AcDbLayerTableRecord
  2
画層95
 70
    0
 62
7
  6
CONTINUOUS
  0
LAYER
  5
99
100
AcDbSymbolTableRecord
100
AcDbLayerTableRecord
  2
画層96
 70
    0
 62
7
  6
CONTINUOUS
  0
LAYER
  5
9A
100
AcDbSymbolTableRecord
100
AcDbLayerTableRecord
  2
画層97
 70
    0
 62
7
  6
CONTINUOUS
  0
LAYER
  5
9B
100
AcDbSymbolTableRecord
100
AcDbLayerTableRecord
  2
画層98
 70
    0
 62
7
  6
CONTINUOUS
  0
LAYER
  5
9C
100
AcDbSymbolTableRecord
100
AcDbLayerTableRecord
  2
画層99
 70
    0
 62
7
  6
CONTINUOUS
  0
LAYER
  5
9D
100
AcDbSymbolTableRecord
100
AcDbLayerTableRecord
  2
画層100
 70
    0
 62
7
  6
CONTINUOUS
  0
LAYER
  5
9E
100
AcDbSymbolTableRecord
100
AcDbLayerTableRecord
  2
画層101
 70
    0
 62
7
  6
CONTINUOUS
  0
LAYER
  5
9F
100
AcDbSymbolTableRecord
100
AcDbLayerTableRecord
  2
画層102
 70
    0
 62
7
  6
CONTINUOUS
  0
LAYER
  5
A0
100
AcDbSymbolTableRecord
100
AcDbLayerTableRecord
  2
画層103
 70
    0
 62
7
  6
CONTINUOUS
  0
LAYER
  5
A1
100
AcDbSymbolTableRecord
100
AcDbLayerTableRecord
  2
画層104
 70
    0
 62
7
  6
CONTINUOUS
  0
LAYER
  5
A2
100
AcDbSymbolTableRecord
100
AcDbLayerTableRecord
  2
画層105
 70
    0
 62
7
  6
CONTINUOUS
  0
LAYER
  5
A3
100
AcDbSymbolTableRecord
100
AcDbLayerTableRecord
  2
画層106
 70
    0
 62
7
  6
CONTINUOUS
  0
LAYER
  5
A4
100
AcDbSymbolTableRecord
100
AcDbLayerTableRecord
  2
画層107
 70
    0
 62
7
  6
CONTINUOUS
  0
LAYER
  5
A5
100
AcDbSymbolTableRecord
100
AcDbLayerTableRecord
  2
画層108
 70
    0
 62
7
  6
CONTINUOUS
  0
LAYER
  5
A6
100
AcDbSymbolTableRecord
100
AcDbLayerTableRecord
  2
画層109
 70
    0
 62
7
  6
CONTINUOUS
  0
LAYER
  5
A7
100
AcDbSymbolTableRecord
100
AcDbLayerTableRecord
  2
画層110
 70
    0
 62
7
  6
CONTINUOUS
  0
LAYER
  5
A8
100
AcDbSymbolTableRecord
100
AcDbLayerTableRecord
  2
画層111
 70
    0
 62
7
  6
CONTINUOUS
  0
LAYER
  5
A9
100
AcDbSymbolTableRecord
100
AcDbLayerTableRecord
  2
画層112
 70
    0
 62
7
  6
CONTINUOUS
  0
LAYER
  5
AA
100
AcDbSymbolTableRecord
100
AcDbLayerTableRecord
  2
画層113
 70
    0
 62
7
  6
CONTINUOUS
  0
LAYER
  5
AB
100
AcDbSymbolTableRecord
100
AcDbLayerTableRecord
  2
画層114
 70
    0
 62
7
  6
CONTINUOUS
  0
LAYER
  5
AC
100
AcDbSymbolTableRecord
100
AcDbLayerTableRecord
  2
画層115
 70
    0
 62
7
  6
CONTINUOUS
  0
LAYER
  5
AD
100
AcDbSymbolTableRecord
100
AcDbLayerTableRecord
  2
画層116
 70
    0
 62
7
  6
CONTINUOUS
  0
LAYER
  5
AE
100
AcDbSymbolTableRecord
100
AcDbLayerTableRecord
  2
画層117
 70
    0
 62
7
  6
CONTINUOUS
  0
LAYER
  5
AF
100
AcDbSymbolTableRecord
100
AcDbLayerTableRecord
  2
画層118
 70
    0
 62
7
  6
CONTINUOUS
  0
LAYER
  5
B0
100
AcDbSymbolTableRecord
100
AcDbLayerTableRecord
  2
画層119
 70
    0
 62
7
  6
CONTINUOUS
  0
LAYER
  5
B1
100
AcDbSymbolTableRecord
100
AcDbLayerTableRecord
  2
画層120
 70
    0
 62
7
  6
CONTINUOUS
  0
LAYER
  5
B2
100
AcDbSymbolTableRecord
100
AcDbLayerTableRecord
  2
画層121
 70
    0
 62
7
  6
CONTINUOUS
  0
LAYER
  5
B3
100
AcDbSymbolTableRecord
100
AcDbLayerTableRecord
  2
画層122
 70
    0
 62
7
  6
CONTINUOUS
  0
LAYER
  5
B4
100
AcDbSymbolTableRecord
100
AcDbLayerTableRecord
  2
画層123
 70
    0
 62
7
  6
CONTINUOUS
  0
LAYER
  5
B5
100
AcDbSymbolTableRecord
100
AcDbLayerTableRecord
  2
画層124
 70
    0
 62
7
  6
CONTINUOUS
  0
LAYER
  5
B6
100
AcDbSymbolTableRecord
100
AcDbLayerTableRecord
  2
画層125
 70
    0
 62
7
  6
CONTINUOUS
  0
LAYER
  5
B7
100
AcDbSymbolTableRecord
100
AcDbLayerTableRecord
  2
画層126
 70
    0
 62
7
  6
CONTINUOUS
  0
LAYER
  5
B8
100
AcDbSymbolTableRecord
100
AcDbLayerTableRecord
  2
画層127
 70
    0
 62
7
  6
CONTINUOUS
  0
LAYER
  5
B9
100
AcDbSymbolTableRecord
100
AcDbLayerTableRecord
  2
画層128
 70
    0
 62
7
  6
CONTINUOUS
  0
LAYER
  5
BA
100
AcDbSymbolTableRecord
100
AcDbLayerTableRecord
  2
画層129
 70
    0
 62
7
  6
CONTINUOUS
  0
LAYER
  5
BB
100
AcDbSymbolTableRecord
100
AcDbLayerTableRecord
  2
画層130
 70
    0
 62
7
  6
CONTINUOUS
  0
LAYER
  5
BC
100
AcDbSymbolTableRecord
100
AcDbLayerTableRecord
  2
画層131
 70
    0
 62
7
  6
CONTINUOUS
  0
LAYER
  5
BD
100
AcDbSymbolTableRecord
100
AcDbLayerTableRecord
  2
画層132
 70
    0
 62
7
  6
CONTINUOUS
  0
LAYER
  5
BE
100
AcDbSymbolTableRecord
100
AcDbLayerTableRecord
  2
画層133
 70
    0
 62
7
  6
CONTINUOUS
  0
LAYER
  5
BF
100
AcDbSymbolTableRecord
100
AcDbLayerTableRecord
  2
画層134
 70
    0
 62
7
  6
CONTINUOUS
  0
LAYER
  5
C0
100
AcDbSymbolTableRecord
100
AcDbLayerTableRecord
  2
画層135
 70
    0
 62
7
  6
CONTINUOUS
  0
LAYER
  5
C1
100
AcDbSymbolTableRecord
100
AcDbLayerTableRecord
  2
画層136
 70
    0
 62
7
  6
CONTINUOUS
  0
LAYER
  5
C2
100
AcDbSymbolTableRecord
100
AcDbLayerTableRecord
  2
画層137
 70
    0
 62
7
  6
CONTINUOUS
  0
LAYER
  5
C3
100
AcDbSymbolTableRecord
100
AcDbLayerTableRecord
  2
画層138
 70
    0
 62
7
  6
CONTINUOUS
  0
LAYER
  5
C4
100
AcDbSymbolTableRecord
100
AcDbLayerTableRecord
  2
画層139
 70
    0
 62
7
  6
CONTINUOUS
  0
LAYER
  5
C5
100
AcDbSymbolTableRecord
100
AcDbLayerTableRecord
  2
画層140
 70
    0
 62
7
  6
CONTINUOUS
  0
LAYER
  5
C6
100
AcDbSymbolTableRecord
100
AcDbLayerTableRecord
  2
画層141
 70
    0
 62
7
  6
CONTINUOUS
  0
LAYER
  5
C7
100
AcDbSymbolTableRecord
100
AcDbLayerTableRecord
  2
画層142
 70
    0
 62
7
  6
CONTINUOUS
  0
LAYER
  5
C8
100
AcDbSymbolTableRecord
100
AcDbLayerTableRecord
  2
画層143
 70
    0
 62
7
  6
CONTINUOUS
  0
LAYER
  5
C9
100
AcDbSymbolTableRecord
100
AcDbLayerTableRecord
  2
画層144
 70
    0
 62
7
  6
CONTINUOUS
  0
LAYER
  5
CA
100
AcDbSymbolTableRecord
100
AcDbLayerTableRecord
  2
画層145
 70
    0
 62
7
  6
CONTINUOUS
  0
LAYER
  5
CB
100
AcDbSymbolTableRecord
100
AcDbLayerTableRecord
  2
画層146
 70
    0
 62
7
  6
CONTINUOUS
  0
LAYER
  5
CC
100
AcDbSymbolTableRecord
100
AcDbLayerTableRecord
  2
画層147
 70
    0
 62
7
  6
CONTINUOUS
  0
LAYER
  5
CD
100
AcDbSymbolTableRecord
100
AcDbLayerTableRecord
  2
画層148
 70
    0
 62
7
  6
CONTINUOUS
  0
LAYER
  5
CE
100
AcDbSymbolTableRecord
100
AcDbLayerTableRecord
  2
画層149
 70
    0
 62
7
  6
CONTINUOUS
  0
LAYER
  5
CF
100
AcDbSymbolTableRecord
100
AcDbLayerTableRecord
  2
画層150
 70
    0
 62
7
  6
CONTINUOUS
  0
LAYER
  5
D0
100
AcDbSymbolTableRecord
100
AcDbLayerTableRecord
  2
画層151
 70
    0
 62
7
  6
CONTINUOUS
  0
LAYER
  5
D1
100
AcDbSymbolTableRecord
100
AcDbLayerTableRecord
  2
画層152
 70
    0
 62
7
  6
CONTINUOUS
  0
LAYER
  5
D2
100
AcDbSymbolTableRecord
100
AcDbLayerTableRecord
  2
画層153
 70
    0
 62
7
  6
CONTINUOUS
  0
LAYER
  5
D3
100
AcDbSymbolTableRecord
100
AcDbLayerTableRecord
  2
画層154
 70
    0
 62
7
  6
CONTINUOUS
  0
LAYER
  5
D4
100
AcDbSymbolTableRecord
100
AcDbLayerTableRecord
  2
画層155
 70
    0
 62
7
  6
CONTINUOUS
  0
LAYER
  5
D5
100
AcDbSymbolTableRecord
100
AcDbLayerTableRecord
  2
画層156
 70
    0
 62
7
  6
CONTINUOUS
  0
LAYER
  5
D6
100
AcDbSymbolTableRecord
100
AcDbLayerTableRecord
  2
画層157
 70
    0
 62
7
  6
CONTINUOUS
  0
LAYER
  5
D7
100
AcDbSymbolTableRecord
100
AcDbLayerTableRecord
  2
画層158
 70
    0
 62
7
  6
CONTINUOUS
  0
LAYER
  5
D8
100
AcDbSymbolTableRecord
100
AcDbLayerTableRecord
  2
画層159
 70
    0
 62
7
  6
CONTINUOUS
  0
LAYER
  5
D9
100
AcDbSymbolTableRecord
100
AcDbLayerTableRecord
  2
画層160
 70
    0
 62
7
  6
CONTINUOUS
  0
LAYER
  5
DA
100
AcDbSymbolTableRecord
100
AcDbLayerTableRecord
  2
画層161
 70
    0
 62
7
  6
CONTINUOUS
  0
LAYER
  5
DB
100
AcDbSymbolTableRecord
100
AcDbLayerTableRecord
  2
画層162
 70
    0
 62
7
  6
CONTINUOUS
  0
LAYER
  5
DC
100
AcDbSymbolTableRecord
100
AcDbLayerTableRecord
  2
画層163
 70
    0
 62
7
  6
CONTINUOUS
  0
LAYER
  5
DD
100
AcDbSymbolTableRecord
100
AcDbLayerTableRecord
  2
画層164
 70
    0
 62
7
  6
CONTINUOUS
  0
LAYER
  5
DE
100
AcDbSymbolTableRecord
100
AcDbLayerTableRecord
  2
画層165
 70
    0
 62
7
  6
CONTINUOUS
  0
LAYER
  5
DF
100
AcDbSymbolTableRecord
100
AcDbLayerTableRecord
  2
画層166
 70
    0
 62
7
  6
CONTINUOUS
  0
LAYER
  5
E0
100
AcDbSymbolTableRecord
100
AcDbLayerTableRecord
  2
画層167
 70
    0
 62
7
  6
CONTINUOUS
  0
LAYER
  5
E1
100
AcDbSymbolTableRecord
100
AcDbLayerTableRecord
  2
画層168
 70
    0
 62
7
  6
CONTINUOUS
  0
LAYER
  5
E2
100
AcDbSymbolTableRecord
100
AcDbLayerTableRecord
  2
画層169
 70
    0
 62
7
  6
CONTINUOUS
  0
LAYER
  5
E3
100
AcDbSymbolTableRecord
100
AcDbLayerTableRecord
  2
画層170
 70
    0
 62
7
  6
CONTINUOUS
  0
LAYER
  5
E4
100
AcDbSymbolTableRecord
100
AcDbLayerTableRecord
  2
画層171
 70
    0
 62
7
  6
CONTINUOUS
  0
LAYER
  5
E5
100
AcDbSymbolTableRecord
100
AcDbLayerTableRecord
  2
画層172
 70
    0
 62
7
  6
CONTINUOUS
  0
LAYER
  5
E6
100
AcDbSymbolTableRecord
100
AcDbLayerTableRecord
  2
画層173
 70
    0
 62
7
  6
CONTINUOUS
  0
LAYER
  5
E7
100
AcDbSymbolTableRecord
100
AcDbLayerTableRecord
  2
画層174
 70
    0
 62
7
  6
CONTINUOUS
  0
LAYER
  5
E8
100
AcDbSymbolTableRecord
100
AcDbLayerTableRecord
  2
画層175
 70
    0
 62
7
  6
CONTINUOUS
  0
LAYER
  5
E9
100
AcDbSymbolTableRecord
100
AcDbLayerTableRecord
  2
画層176
 70
    0
 62
7
  6
CONTINUOUS
  0
LAYER
  5
EA
100
AcDbSymbolTableRecord
100
AcDbLayerTableRecord
  2
画層177
 70
    0
 62
7
  6
CONTINUOUS
  0
LAYER
  5
EB
100
AcDbSymbolTableRecord
100
AcDbLayerTableRecord
  2
画層178
 70
    0
 62
7
  6
CONTINUOUS
  0
LAYER
  5
EC
100
AcDbSymbolTableRecord
100
AcDbLayerTableRecord
  2
画層179
 70
    0
 62
7
  6
CONTINUOUS
  0
LAYER
  5
ED
100
AcDbSymbolTableRecord
100
AcDbLayerTableRecord
  2
画層180
 70
    0
 62
7
  6
CONTINUOUS
  0
LAYER
  5
EE
100
AcDbSymbolTableRecord
100
AcDbLayerTableRecord
  2
画層181
 70
    0
 62
7
  6
CONTINUOUS
  0
LAYER
  5
EF
100
AcDbSymbolTableRecord
100
AcDbLayerTableRecord
  2
画層182
 70
    0
 62
7
  6
CONTINUOUS
  0
LAYER
  5
F0
100
AcDbSymbolTableRecord
100
AcDbLayerTableRecord
  2
画層183
 70
    0
 62
7
  6
CONTINUOUS
  0
LAYER
  5
F1
100
AcDbSymbolTableRecord
100
AcDbLayerTableRecord
  2
画層184
 70
    0
 62
7
  6
CONTINUOUS
  0
LAYER
  5
F2
100
AcDbSymbolTableRecord
100
AcDbLayerTableRecord
  2
画層185
 70
    0
 62
7
  6
CONTINUOUS
  0
LAYER
  5
F3
100
AcDbSymbolTableRecord
100
AcDbLayerTableRecord
  2
画層186
 70
    0
 62
7
  6
CONTINUOUS
  0
LAYER
  5
F4
100
AcDbSymbolTableRecord
100
AcDbLayerTableRecord
  2
画層187
 70
    0
 62
7
  6
CONTINUOUS
  0
LAYER
  5
F5
100
AcDbSymbolTableRecord
100
AcDbLayerTableRecord
  2
画層188
 70
    0
 62
7
  6
CONTINUOUS
  0
LAYER
  5
F6
100
AcDbSymbolTableRecord
100
AcDbLayerTableRecord
  2
画層189
 70
    0
 62
7
  6
CONTINUOUS
  0
LAYER
  5
F7
100
AcDbSymbolTableRecord
100
AcDbLayerTableRecord
  2
画層190
 70
    0
 62
7
  6
CONTINUOUS
  0
LAYER
  5
F8
100
AcDbSymbolTableRecord
100
AcDbLayerTableRecord
  2
画層191
 70
    0
 62
7
  6
CONTINUOUS
  0
LAYER
  5
F9
100
AcDbSymbolTableRecord
100
AcDbLayerTableRecord
  2
画層192
 70
    0
 62
7
  6
CONTINUOUS
  0
LAYER
  5
FA
100
AcDbSymbolTableRecord
100
AcDbLayerTableRecord
  2
画層193
 70
    0
 62
7
  6
CONTINUOUS
  0
LAYER
  5
FB
100
AcDbSymbolTableRecord
100
AcDbLayerTableRecord
  2
画層194
 70
    0
 62
7
  6
CONTINUOUS
  0
LAYER
  5
FC
100
AcDbSymbolTableRecord
100
AcDbLayerTableRecord
  2
画層195
 70
    0
 62
7
  6
CONTINUOUS
  0
LAYER
  5
FD
100
AcDbSymbolTableRecord
100
AcDbLayerTableRecord
  2
画層196
 70
    0
 62
7
  6
CONTINUOUS
  0
LAYER
  5
FE
100
AcDbSymbolTableRecord
100
AcDbLayerTableRecord
  2
画層197
 70
    0
 62
7
  6
CONTINUOUS
  0
LAYER
  5
FF
100
AcDbSymbolTableRecord
100
AcDbLayerTableRecord
  2
画層198
 70
    0
 62
7
  6
CONTINUOUS
  0
LAYER
  5
100
100
AcDbSymbolTableRecord
100
AcDbLayerTableRecord
  2
画層199
 70
    0
 62
7
  6
CONTINUOUS
  0
LAYER
  5
101
100
AcDbSymbolTableRecord
100
AcDbLayerTableRecord
  2
画層200
 70
    0
 62
7
  6
CONTINUOUS
  0
LAYER
  5
102
100
AcDbSymbolTableRecord
100
AcDbLayerTableRecord
  2
画層201
 70
    0
 62
7
  6
CONTINUOUS
  0
LAYER
  5
103
100
AcDbSymbolTableRecord
100
AcDbLayerTableRecord
  2
画層202
 70
    0
 62
7
  6
CONTINUOUS
  0
LAYER
  5
104
100
AcDbSymbolTableRecord
100
AcDbLayerTableRecord
  2
画層203
 70
    0
 62
7
  6
CONTINUOUS
  0
LAYER
  5
105
100
AcDbSymbolTableRecord
100
AcDbLayerTableRecord
  2
画層204
 70
    0
 62
7
  6
CONTINUOUS
  0
LAYER
  5
106
100
AcDbSymbolTableRecord
100
AcDbLayerTableRecord
  2
画層205
 70
    0
 62
7
  6
CONTINUOUS
  0
LAYER
  5
107
100
AcDbSymbolTableRecord
100
AcDbLayerTableRecord
  2
画層206
 70
    0
 62
7
  6
CONTINUOUS
  0
LAYER
  5
108
100
AcDbSymbolTableRecord
100
AcDbLayerTableRecord
  2
画層207
 70
    0
 62
7
  6
CONTINUOUS
  0
LAYER
  5
109
100
AcDbSymbolTableRecord
100
AcDbLayerTableRecord
  2
画層208
 70
    0
 62
7
  6
CONTINUOUS
  0
LAYER
  5
10A
100
AcDbSymbolTableRecord
100
AcDbLayerTableRecord
  2
画層209
 70
    0
 62
7
  6
CONTINUOUS
  0
LAYER
  5
10B
100
AcDbSymbolTableRecord
100
AcDbLayerTableRecord
  2
画層210
 70
    0
 62
7
  6
CONTINUOUS
  0
LAYER
  5
10C
100
AcDbSymbolTableRecord
100
AcDbLayerTableRecord
  2
画層211
 70
    0
 62
7
  6
CONTINUOUS
  0
LAYER
  5
10D
100
AcDbSymbolTableRecord
100
AcDbLayerTableRecord
  2
画層212
 70
    0
 62
7
  6
CONTINUOUS
  0
LAYER
  5
10E
100
AcDbSymbolTableRecord
100
AcDbLayerTableRecord
  2
画層213
 70
    0
 62
7
  6
CONTINUOUS
  0
LAYER
  5
10F
100
AcDbSymbolTableRecord
100
AcDbLayerTableRecord
  2
画層214
 70
    0
 62
7
  6
CONTINUOUS
  0
LAYER
  5
110
100
AcDbSymbolTableRecord
100
AcDbLayerTableRecord
  2
画層215
 70
    0
 62
7
  6
CONTINUOUS
  0
LAYER
  5
111
100
AcDbSymbolTableRecord
100
AcDbLayerTableRecord
  2
画層216
 70
    0
 62
7
  6
CONTINUOUS
  0
LAYER
  5
112
100
AcDbSymbolTableRecord
100
AcDbLayerTableRecord
  2
画層217
 70
    0
 62
7
  6
CONTINUOUS
  0
LAYER
  5
113
100
AcDbSymbolTableRecord
100
AcDbLayerTableRecord
  2
画層218
 70
    0
 62
7
  6
CONTINUOUS
  0
LAYER
  5
114
100
AcDbSymbolTableRecord
100
AcDbLayerTableRecord
  2
画層219
 70
    0
 62
7
  6
CONTINUOUS
  0
LAYER
  5
115
100
AcDbSymbolTableRecord
100
AcDbLayerTableRecord
  2
画層220
 70
    0
 62
7
  6
CONTINUOUS
  0
LAYER
  5
116
100
AcDbSymbolTableRecord
100
AcDbLayerTableRecord
  2
画層221
 70
    0
 62
7
  6
CONTINUOUS
  0
LAYER
  5
117
100
AcDbSymbolTableRecord
100
AcDbLayerTableRecord
  2
画層222
 70
    0
 62
7
  6
CONTINUOUS
  0
LAYER
  5
118
100
AcDbSymbolTableRecord
100
AcDbLayerTableRecord
  2
画層223
 70
    0
 62
7
  6
CONTINUOUS
  0
LAYER
  5
119
100
AcDbSymbolTableRecord
100
AcDbLayerTableRecord
  2
画層224
 70
    0
 62
7
  6
CONTINUOUS
  0
LAYER
  5
11A
100
AcDbSymbolTableRecord
100
AcDbLayerTableRecord
  2
画層225
 70
    0
 62
7
  6
CONTINUOUS
  0
LAYER
  5
11B
100
AcDbSymbolTableRecord
100
AcDbLayerTableRecord
  2
画層226
 70
    0
 62
7
  6
CONTINUOUS
  0
LAYER
  5
11C
100
AcDbSymbolTableRecord
100
AcDbLayerTableRecord
  2
画層227
 70
    0
 62
7
  6
CONTINUOUS
  0
LAYER
  5
11D
100
AcDbSymbolTableRecord
100
AcDbLayerTableRecord
  2
画層228
 70
    0
 62
7
  6
CONTINUOUS
  0
LAYER
  5
11E
100
AcDbSymbolTableRecord
100
AcDbLayerTableRecord
  2
画層229
 70
    0
 62
7
  6
CONTINUOUS
  0
LAYER
  5
11F
100
AcDbSymbolTableRecord
100
AcDbLayerTableRecord
  2
画層230
 70
    0
 62
7
  6
CONTINUOUS
  0
LAYER
  5
120
100
AcDbSymbolTableRecord
100
AcDbLayerTableRecord
  2
画層231
 70
    0
 62
7
  6
CONTINUOUS
  0
LAYER
  5
121
100
AcDbSymbolTableRecord
100
AcDbLayerTableRecord
  2
画層232
 70
    0
 62
7
  6
CONTINUOUS
  0
LAYER
  5
122
100
AcDbSymbolTableRecord
100
AcDbLayerTableRecord
  2
画層233
 70
    0
 62
7
  6
CONTINUOUS
  0
LAYER
  5
123
100
AcDbSymbolTableRecord
100
AcDbLayerTableRecord
  2
画層234
 70
    0
 62
7
  6
CONTINUOUS
  0
LAYER
  5
124
100
AcDbSymbolTableRecord
100
AcDbLayerTableRecord
  2
画層235
 70
    0
 62
7
  6
CONTINUOUS
  0
LAYER
  5
125
100
AcDbSymbolTableRecord
100
AcDbLayerTableRecord
  2
画層236
 70
    0
 62
7
  6
CONTINUOUS
  0
LAYER
  5
126
100
AcDbSymbolTableRecord
100
AcDbLayerTableRecord
  2
画層237
 70
    0
 62
7
  6
CONTINUOUS
  0
LAYER
  5
127
100
AcDbSymbolTableRecord
100
AcDbLayerTableRecord
  2
画層238
 70
    0
 62
7
  6
CONTINUOUS
  0
LAYER
  5
128
100
AcDbSymbolTableRecord
100
AcDbLayerTableRecord
  2
画層239
 70
    0
 62
7
  6
CONTINUOUS
  0
LAYER
  5
129
100
AcDbSymbolTableRecord
100
AcDbLayerTableRecord
  2
画層240
 70
    0
 62
7
  6
CONTINUOUS
  0
LAYER
  5
12A
100
AcDbSymbolTableRecord
100
AcDbLayerTableRecord
  2
画層241
 70
    0
 62
7
  6
CONTINUOUS
  0
LAYER
  5
12B
100
AcDbSymbolTableRecord
100
AcDbLayerTableRecord
  2
画層242
 70
    0
 62
7
  6
CONTINUOUS
  0
LAYER
  5
12C
100
AcDbSymbolTableRecord
100
AcDbLayerTableRecord
  2
画層243
 70
    0
 62
7
  6
CONTINUOUS
  0
LAYER
  5
12D
100
AcDbSymbolTableRecord
100
AcDbLayerTableRecord
  2
画層244
 70
    0
 62
7
  6
CONTINUOUS
  0
LAYER
  5
12E
100
AcDbSymbolTableRecord
100
AcDbLayerTableRecord
  2
画層245
 70
    0
 62
7
  6
CONTINUOUS
  0
LAYER
  5
12F
100
AcDbSymbolTableRecord
100
AcDbLayerTableRecord
  2
画層246
 70
    0
 62
7
  6
CONTINUOUS
  0
LAYER
  5
130
100
AcDbSymbolTableRecord
100
AcDbLayerTableRecord
  2
画層247
 70
    0
 62
7
  6
CONTINUOUS
  0
LAYER
  5
131
100
AcDbSymbolTableRecord
100
AcDbLayerTableRecord
  2
画層248
 70
    0
 62
7
  6
CONTINUOUS
  0
LAYER
  5
132
100
AcDbSymbolTableRecord
100
AcDbLayerTableRecord
  2
画層249
 70
    0
 62
7
  6
CONTINUOUS
  0
LAYER
  5
133
100
AcDbSymbolTableRecord
100
AcDbLayerTableRecord
  2
画層250
 70
    0
 62
7
  6
CONTINUOUS
  0
LAYER
  5
134
100
AcDbSymbolTableRecord
100
AcDbLayerTableRecord
  2
画層251
 70
    0
 62
7
  6
CONTINUOUS
  0
LAYER
  5
135
100
AcDbSymbolTableRecord
100
AcDbLayerTableRecord
  2
画層252
 70
    0
 62
7
  6
CONTINUOUS
  0
LAYER
  5
136
100
AcDbSymbolTableRecord
100
AcDbLayerTableRecord
  2
画層253
 70
    0
 62
7
  6
CONTINUOUS
  0
LAYER
  5
137
100
AcDbSymbolTableRecord
100
AcDbLayerTableRecord
  2
画層254
 70
    0
 62
7
  6
CONTINUOUS
  0
LAYER
  5
138
100
AcDbSymbolTableRecord
100
AcDbLayerTableRecord
  2
画層255
 70
    0
 62
7
  6
CONTINUOUS
  0
LAYER
  5
139
100
AcDbSymbolTableRecord
100
AcDbLayerTableRecord
  2
0
 70
   64
 62
    7
  6
CONTINUOUS
  0
ENDTAB
  0
TABLE
  2
STYLE
  5
4
100
AcDbSymbolTable
 70
     1
  0
STYLE
  5
13A
100
AcDbSymbolTableRecord
100
AcDbTextStyleTableRecord
  2
Standard
 70
     0
 40
0.0
 41
1.0
 50
0.0
 71
     0
 42
3.2
  3
TXT
  4
BIGFONT
  0
STYLE
  5
13B
100
AcDbSymbolTableRecord
100
AcDbTextStyleTableRecord
  2
Font_0
 70
     0
 40
0.0
 41
1.0
 50
0.0
 71
     0
 42
3.2
  3
MS Gothic.ttf
  4

1001
ACAD
1000
MS Gothic
1071
  32817
  0
ENDTAB
  0
TABLE
  2
VIEW
  5
5
100
AcDbSymbolTable
 70
     0
  0
ENDTAB
  0
TABLE
  2
UCS
  5
6
100
AcDbSymbolTable
 70
     0
  0
ENDTAB
  0
TABLE
  2
APPID
  5
7
100
AcDbSymbolTable
 70
     1
  0
APPID
  5
13C
100
AcDbSymbolTableRecord
100
AcDbRegAppTableRecord
  2
ACAD
 70
     0
  0
ENDTAB
  0
TABLE
  2
DIMSTYLE
  5
8
100
AcDbSymbolTable
 70
     1
  0
DIMSTYLE
105
2A
100
AcDbSymbolTableRecord
100
AcDbDimStyleTableRecord
  2
STANDARD
 70
     0
  3

  4

  5

  6

  7

 40
1.0
 41
2.5
 42
2.0
 43
7.0
 44
1.25
 45
0.0
 46
0.0
 47
0.0
 48
0.0
 71
     0
 72
     0
 73
     0
 74
     0
 75
     0
 76
     0
 77
     1
 78
     0
140
2.5
141
2.5
142
0.0
143
0.0394
144
1.0
145
0.0
146
1.0
147
1.0
170
     0
171
     2
172
     0
173
     0
174
     1
175
     0
176
     0
177
     0
178
     0
270
     2
271
     2
272
     4
273
     2
274
     2
275
     0
280
     0
281
     0
282
     0
283
     1
284
     0
285
     0
286
     0
287
     3
288
     0
  0
ENDTAB
  0
TABLE
  2
BLOCK_RECORD
  5
9
100
AcDbSymbolTable
 70
     0
  0
BLOCK_RECORD
  5
13D
100
AcDbSymbolTableRecord
100
AcDbBlockTableRecord
  2
*MODEL_SPACE
  0
BLOCK_RECORD
  5
13E
100
AcDbSymbolTableRecord
100
AcDbBlockTableRecord
  2
*PAPER_SPACE
  0
ENDTAB
  0
ENDSEC
  0
SECTION
  2
BLOCKS
  0
BLOCK
  5
140
100
AcDbEntity
  8
0
100
AcDbBlockBegin
2
*MODEL_SPACE
 70
     0
 10
0.0
 20
0.0
 30
0.0
  3
*MODEL_SPACE
  1

  0
ENDBLK
  5
141
100
AcDbEntity
  8
画層0
100
AcDbBlockEnd
  0
BLOCK
  5
142
100
AcDbEntity
 67
     1
  8
画層0
100
AcDbBlockBegin
  2
*PAPER_SPACE
 70
     0
 10
0.0
 20
0.0
 30
0.0
  3
*PAPER_SPACE
  1

  0
ENDBLK
  5
143
100
AcDbEntity
 67
     1
  8
画層0
100
AcDbBlockEnd
  0
ENDSEC
  0
SECTION
  2
ENTITIES
  0
LINE
  5
144
100
AcDbEntity
  8
画層0
100
AcDbLine
  6
CONTINUOUS
 10
140
 20
170
 11
140
 21
150
  0
LINE
  5
145
100
AcDbEntity
  8
画層0
100
AcDbLine
  6
CONTINUOUS
 10
135
 20
165
 11
135
 21
155
  0
LINE
  5
146
100
AcDbEntity
  8
画層0
100
AcDbLine
  6
CONTINUOUS
 10
140
 20
160
 11
150
 21
160
  0
LINE
  5
147
100
AcDbEntity
  8
画層0
100
AcDbLine
  6
CONTINUOUS
 10
140
 20
167.5
 11
150
 21
167.5
  0
LINE
  5
148
100
AcDbEntity
  8
画層0
100
AcDbLine
  6
CONTINUOUS
 10
150
 20
152.5
 11
140
 21
152.5
  0
LINE
  5
149
100
AcDbEntity
  8
画層0
100
AcDbLine
  6
CONTINUOUS
 10
135
 20
160
 11
130
 21
160
  0
LINE
  5
14A
100
AcDbEntity
  8
画層0
100
AcDbLine
  6
CONTINUOUS
 10
150
 20
160
 11
145
 21
158.75
  0
LINE
  5
14B
100
AcDbEntity
  8
画層0
100
AcDbLine
  6
CONTINUOUS
 10
150
 20
160
 11
145
 21
161.25
  0
LINE
  5
14C
100
AcDbEntity
  8
画層0
100
AcDbLine
  6
CONTINUOUS
 10
150
 20
152.5
 11
150
 21
150
  0
LINE
  5
14D
100
AcDbEntity
  8
画層0
100
AcDbLine
  6
CONTINUOUS
 10
150
 20
160
 11
150
 21
170
  0
LINE
  5
14E
100
AcDbEntity
  8
画層0
100
AcDbLine
  6
CONTINUOUS
 10
140
 20
50
 11
140
 21
70
  0
LINE
  5
14F
100
AcDbEntity
  8
画層0
100
AcDbLine
  6
CONTINUOUS
 10
135
 20
55
 11
135
 21
65
  0
LINE
  5
150
100
AcDbEntity
  8
画層0
100
AcDbLine
  6
CONTINUOUS
 10
135
 20
60
 11
130
 21
60
  0
LINE
  5
151
100
AcDbEntity
  8
画層0
100
AcDbLine
  6
CONTINUOUS
 10
170
 20
190
 11
30
 21
190
  0
LINE
  5
152
100
AcDbEntity
  8
画層0
100
AcDbLine
  6
CONTINUOUS
 10
139.5
 20
170
 11
139.5
 21
150
  0
LINE
  5
153
100
AcDbEntity
  8
画層0
100
AcDbLine
  6
CONTINUOUS
 10
140.5
 20
170
 11
140.5
 21
150
  0
LINE
  5
154
100
AcDbEntity
  8
画層0
100
AcDbLine
  6
CONTINUOUS
 10
134.5
 20
165
 11
134.5
 21
155
  0
LINE
  5
155
100
AcDbEntity
  8
画層0
100
AcDbLine
  6
CONTINUOUS
 10
135.5
 20
165
 11
135.5
 21
155
  0
LWPOLYLINE
  5
156
100
AcDbEntity
  8
画層0
100
AcDbPolyline
  6
CONTINUOUS
 90
     4
 70
     1
 10
139.5
  20
150
 10
140.5
  20
150
 10
140.5
  20
170
 10
139.5
  20
170
  0
SOLID
  5
157
100
AcDbEntity
  8
画層0
100
AcDbTrace
 10
139.5
 20
150
 30
0.0
 11
140.5
 21
150
 31
0.0
 12
139.5
 22
170
 32
0.0
 13
140.5
 23
170
 33
0.0
  0
LWPOLYLINE
  5
158
100
AcDbEntity
  8
画層0
100
AcDbPolyline
  6
CONTINUOUS
 90
     4
 70
     1
 10
134.5
  20
155
 10
135.5
  20
155
 10
135.5
  20
165
 10
134.5
  20
165
  0
SOLID
  5
159
100
AcDbEntity
  8
画層0
100
AcDbTrace
 10
134.5
 20
155
 30
0.0
 11
135.5
 21
155
 31
0.0
 12
134.5
 22
165
 32
0.0
 13
135.5
 23
165
 33
0.0
  0
LWPOLYLINE
  5
15A
100
AcDbEntity
  8
画層0
100
AcDbPolyline
  6
CONTINUOUS
 90
     3
 70
     1
 10
150
  20
160
 10
145
  20
161.25
 10
145
  20
158.75
  0
SOLID
  5
15B
100
AcDbEntity
  8
画層0
100
AcDbTrace
 10
150
 20
160
 30
0.0
 11
145
 21
161.25
 31
0.0
 12
145
 22
158.75
 32
0.0
 13
145
 23
158.75
 33
0.0
  0
LINE
  5
15C
100
AcDbEntity
  8
画層0
100
AcDbLine
  6
CONTINUOUS
 10
150
 20
67.5
 11
140
 21
67.5
  0
LINE
  5
15D
100
AcDbEntity
  8
画層0
100
AcDbLine
  6
CONTINUOUS
 10
150
 20
52.5
 11
140
 21
52.5
  0
LINE
  5
15E
100
AcDbEntity
  8
画層0
100
AcDbLine
  6
CONTINUOUS
 10
150
 20
60
 11
140
 21
60
  0
LWPOLYLINE
  5
15F
100
AcDbEntity
  8
画層0
100
AcDbPolyline
  6
CONTINUOUS
 90
     3
 70
     1
 10
145
  20
58.75
 10
145
  20
61.25
 10
140
  20
60
  0
SOLID
  5
160
100
AcDbEntity
  8
画層0
100
AcDbTrace
 10
145
 20
58.75
 30
0.0
 11
145
 21
61.25
 31
0.0
 12
140
 22
60
 32
0.0
 13
140
 23
60
 33
0.0
  0
LINE
  5
161
100
AcDbEntity
  8
画層0
100
AcDbLine
  6
CONTINUOUS
 10
139.5
 20
70
 11
139.5
 21
50
  0
LINE
  5
162
100
AcDbEntity
  8
画層0
100
AcDbLine
  6
CONTINUOUS
 10
140.5
 20
70
 11
140.5
 21
50
  0
LINE
  5
163
100
AcDbEntity
  8
画層0
100
AcDbLine
  6
CONTINUOUS
 10
134.5
 20
65
 11
134.5
 21
55
  0
LINE
  5
164
100
AcDbEntity
  8
画層0
100
AcDbLine
  6
CONTINUOUS
 10
135.5
 20
65
 11
135.5
 21
55
  0
LWPOLYLINE
  5
165
100
AcDbEntity
  8
画層0
100
AcDbPolyline
  6
CONTINUOUS
 90
     4
 70
     1
 10
134.5
  20
55
 10
135.5
  20
55
 10
135.5
  20
65
 10
134.5
  20
65
  0
SOLID
  5
166
100
AcDbEntity
  8
画層0
100
AcDbTrace
 10
134.5
 20
55
 30
0.0
 11
135.5
 21
55
 31
0.0
 12
134.5
 22
65
 32
0.0
 13
135.5
 23
65
 33
0.0
  0
LWPOLYLINE
  5
167
100
AcDbEntity
  8
画層0
100
AcDbPolyline
  6
CONTINUOUS
 90
     4
 70
     1
 10
139.5
  20
50
 10
140.5
  20
50
 10
140.5
  20
70
 10
139.5
  20
70
  0
SOLID
  5
168
100
AcDbEntity
  8
画層0
100
AcDbTrace
 10
139.5
 20
50
 30
0.0
 11
140.5
 21
50
 31
0.0
 12
139.5
 22
70
 32
0.0
 13
140.5
 23
70
 33
0.0
  0
LINE
  5
169
100
AcDbEntity
  8
画層0
100
AcDbLine
  6
CONTINUOUS
 10
150
 20
52.5
 11
150
 21
50
  0
LINE
  5
16A
100
AcDbEntity
  8
画層0
100
AcDbLine
  6
CONTINUOUS
 10
185
 20
72.5
 11
195
 21
72.5
  0
LINE
  5
16B
100
AcDbEntity
  8
画層0
100
AcDbLine
  6
CONTINUOUS
 10
185
 20
77.5
 11
195
 21
77.5
  0
LINE
  5
16C
100
AcDbEntity
  8
画層0
100
AcDbLine
  6
CONTINUOUS
 10
185
 20
77
 11
195
 21
77
  0
LINE
  5
16D
100
AcDbEntity
  8
画層0
100
AcDbLine
  6
CONTINUOUS
 10
185
 20
78
 11
195
 21
78
  0
LINE
  5
16E
100
AcDbEntity
  8
画層0
100
AcDbLine
  6
CONTINUOUS
 10
185
 20
72
 11
195
 21
72
  0
LINE
  5
16F
100
AcDbEntity
  8
画層0
100
AcDbLine
  6
CONTINUOUS
 10
185
 20
73
 11
195
 21
73
  0
LWPOLYLINE
  5
170
100
AcDbEntity
  8
画層0
100
AcDbPolyline
  6
CONTINUOUS
 90
     4
 70
     1
 10
185
  20
77
 10
195
  20
77
 10
195
  20
78
 10
185
  20
78
  0
SOLID
  5
171
100
AcDbEntity
  8
画層0
100
AcDbTrace
 10
185
 20
77
 30
0.0
 11
195
 21
77
 31
0.0
 12
185
 22
78
 32
0.0
 13
195
 23
78
 33
0.0
  0
LWPOLYLINE
  5
172
100
AcDbEntity
  8
画層0
100
AcDbPolyline
  6
CONTINUOUS
 90
     4
 70
     1
 10
185
  20
72
 10
195
  20
72
 10
195
  20
73
 10
185
  20
73
  0
SOLID
  5
173
100
AcDbEntity
  8
画層0
100
AcDbTrace
 10
185
 20
72
 30
0.0
 11
195
 21
72
 31
0.0
 12
185
 22
73
 32
0.0
 13
195
 23
73
 33
0.0
  0
LINE
  5
174
100
AcDbEntity
  8
画層0
100
AcDbLine
  6
CONTINUOUS
 10
210
 20
190
 11
170
 21
190
  0
LINE
  5
175
100
AcDbEntity
  8
画層0
100
AcDbLine
  6
CONTINUOUS
 10
155
 20
25
 11
145
 21
25
  0
LINE
  5
176
100
AcDbEntity
  8
画層0
100
AcDbLine
  6
CONTINUOUS
 10
155
 20
25
 11
151.666666666667
 21
20
  0
LINE
  5
177
100
AcDbEntity
  8
画層0
100
AcDbLine
  6
CONTINUOUS
 10
145
 20
20
 11
148.333333333333
 21
25
  0
LINE
  5
178
100
AcDbEntity
  8
画層0
100
AcDbLine
  6
CONTINUOUS
 10
148.333333333333
 20
20
 11
151.666666666667
 21
25
  0
LINE
  5
179
100
AcDbEntity
  8
画層0
100
AcDbLine
  6
CONTINUOUS
 10
150
 20
30
 11
150
 21
25
  0
LINE
  5
17A
100
AcDbEntity
  8
画層0
100
AcDbLine
  6
CONTINUOUS
 10
30
 20
190
 11
25
 21
192.5
  0
LINE
  5
17B
100
AcDbEntity
  8
画層0
100
AcDbLine
  6
CONTINUOUS
 10
30
 20
190
 11
25
 21
187.5
  0
LINE
  5
17C
100
AcDbEntity
  8
画層0
100
AcDbLine
  6
CONTINUOUS
 10
10
 20
192.5
 11
10
 21
187.5
  0
LINE
  5
17D
100
AcDbEntity
  8
画層0
100
AcDbLine
  6
CONTINUOUS
 10
25
 20
192.5
 11
10
 21
192.5
  0
LINE
  5
17E
100
AcDbEntity
  8
画層0
100
AcDbLine
  6
CONTINUOUS
 10
25
 20
187.5
 11
10
 21
187.5
  0
LINE
  5
17F
100
AcDbEntity
  8
画層0
100
AcDbLine
  6
CONTINUOUS
 10
145
 20
24.5
 11
155
 21
24.5
  0
LINE
  5
180
100
AcDbEntity
  8
画層0
100
AcDbLine
  6
CONTINUOUS
 10
145
 20
25.5
 11
155
 21
25.5
  0
LWPOLYLINE
  5
181
100
AcDbEntity
  8
画層0
100
AcDbPolyline
  6
CONTINUOUS
 90
     4
 70
     1
 10
155
  20
24.5
 10
145
  20
24.5
 10
145
  20
25.5
 10
155
  20
25.5
  0
SOLID
  5
182
100
AcDbEntity
  8
画層0
100
AcDbTrace
 10
155
 20
24.5
 30
0.0
 11
145
 21
24.5
 31
0.0
 12
155
 22
25.5
 32
0.0
 13
145
 23
25.5
 33
0.0
  0
LINE
  5
183
100
AcDbEntity
  8
画層0
100
AcDbLine
  6
CONTINUOUS
 10
150
 20
170
 11
150
 21
190
  0
LINE
  5
184
100
AcDbEntity
  8
画層0
100
AcDbLine
  6
CONTINUOUS
 10
100
 20
170
 11
100
 21
190
  0
LINE
  5
185
100
AcDbEntity
  8
画層0
100
AcDbLine
  6
CONTINUOUS
 10
90
 20
170
 11
90
 21
150
  0
LINE
  5
186
100
AcDbEntity
  8
画層0
100
AcDbLine
  6
CONTINUOUS
 10
85
 20
165
 11
85
 21
155
  0
LINE
  5
187
100
AcDbEntity
  8
画層0
100
AcDbLine
  6
CONTINUOUS
 10
90
 20
160
 11
100
 21
160
  0
LINE
  5
188
100
AcDbEntity
  8
画層0
100
AcDbLine
  6
CONTINUOUS
 10
90
 20
167.5
 11
100
 21
167.5
  0
LINE
  5
189
100
AcDbEntity
  8
画層0
100
AcDbLine
  6
CONTINUOUS
 10
100
 20
152.5
 11
90
 21
152.5
  0
LINE
  5
18A
100
AcDbEntity
  8
画層0
100
AcDbLine
  6
CONTINUOUS
 10
85
 20
160
 11
80
 21
160
  0
LINE
  5
18B
100
AcDbEntity
  8
画層0
100
AcDbLine
  6
CONTINUOUS
 10
100
 20
160
 11
95
 21
158.75
  0
LINE
  5
18C
100
AcDbEntity
  8
画層0
100
AcDbLine
  6
CONTINUOUS
 10
100
 20
160
 11
95
 21
161.25
  0
LINE
  5
18D
100
AcDbEntity
  8
画層0
100
AcDbLine
  6
CONTINUOUS
 10
100
 20
152.5
 11
100
 21
150
  0
LINE
  5
18E
100
AcDbEntity
  8
画層0
100
AcDbLine
  6
CONTINUOUS
 10
100
 20
160
 11
100
 21
170
  0
LINE
  5
18F
100
AcDbEntity
  8
画層0
100
AcDbLine
  6
CONTINUOUS
 10
89.5
 20
170
 11
89.5
 21
150
  0
LINE
  5
190
100
AcDbEntity
  8
画層0
100
AcDbLine
  6
CONTINUOUS
 10
90.5
 20
170
 11
90.5
 21
150
  0
LINE
  5
191
100
AcDbEntity
  8
画層0
100
AcDbLine
  6
CONTINUOUS
 10
84.5
 20
165
 11
84.5
 21
155
  0
LINE
  5
192
100
AcDbEntity
  8
画層0
100
AcDbLine
  6
CONTINUOUS
 10
85.5
 20
165
 11
85.5
 21
155
  0
LWPOLYLINE
  5
193
100
AcDbEntity
  8
画層0
100
AcDbPolyline
  6
CONTINUOUS
 90
     4
 70
     1
 10
89.5
  20
150
 10
90.5
  20
150
 10
90.5
  20
170
 10
89.5
  20
170
  0
SOLID
  5
194
100
AcDbEntity
  8
画層0
100
AcDbTrace
 10
89.5
 20
150
 30
0.0
 11
90.5
 21
150
 31
0.0
 12
89.5
 22
170
 32
0.0
 13
90.5
 23
170
 33
0.0
  0
LWPOLYLINE
  5
195
100
AcDbEntity
  8
画層0
100
AcDbPolyline
  6
CONTINUOUS
 90
     4
 70
     1
 10
84.5
  20
155
 10
85.5
  20
155
 10
85.5
  20
165
 10
84.5
  20
165
  0
SOLID
  5
196
100
AcDbEntity
  8
画層0
100
AcDbTrace
 10
84.5
 20
155
 30
0.0
 11
85.5
 21
155
 31
0.0
 12
84.5
 22
165
 32
0.0
 13
85.5
 23
165
 33
0.0
  0
LWPOLYLINE
  5
197
100
AcDbEntity
  8
画層0
100
AcDbPolyline
  6
CONTINUOUS
 90
     3
 70
     1
 10
100
  20
160
 10
95
  20
161.25
 10
95
  20
158.75
  0
SOLID
  5
198
100
AcDbEntity
  8
画層0
100
AcDbTrace
 10
100
 20
160
 30
0.0
 11
95
 21
161.25
 31
0.0
 12
95
 22
158.75
 32
0.0
 13
95
 23
158.75
 33
0.0
  0
LINE
  5
199
100
AcDbEntity
  8
画層0
100
AcDbLine
  6
CONTINUOUS
 10
150
 20
30
 11
150
 21
50
  0
LINE
  5
19A
100
AcDbEntity
  8
画層0
100
AcDbLine
  6
CONTINUOUS
 10
150
 20
67.5
 11
150
 21
70
  0
LINE
  5
19B
100
AcDbEntity
  8
画層0
100
AcDbLine
  6
CONTINUOUS
 10
150
 20
52.5
 11
150
 21
60
  0
LINE
  5
19C
100
AcDbEntity
  8
画層0
100
AcDbLine
  6
CONTINUOUS
 10
150
 20
70
 11
150
 21
90
  0
LINE
  5
19D
100
AcDbEntity
  8
画層0
100
AcDbLine
  6
CONTINUOUS
 10
140
 20
90
 11
140
 21
110
  0
LINE
  5
19E
100
AcDbEntity
  8
画層0
100
AcDbLine
  6
CONTINUOUS
 10
135
 20
95
 11
135
 21
105
  0
LINE
  5
19F
100
AcDbEntity
  8
画層0
100
AcDbLine
  6
CONTINUOUS
 10
135
 20
100
 11
130
 21
100
  0
LINE
  5
1A0
100
AcDbEntity
  8
画層0
100
AcDbLine
  6
CONTINUOUS
 10
150
 20
107.5
 11
140
 21
107.5
  0
LINE
  5
1A1
100
AcDbEntity
  8
画層0
100
AcDbLine
  6
CONTINUOUS
 10
150
 20
92.5
 11
140
 21
92.5
  0
LINE
  5
1A2
100
AcDbEntity
  8
画層0
100
AcDbLine
  6
CONTINUOUS
 10
150
 20
100
 11
140
 21
100
  0
LWPOLYLINE
  5
1A3
100
AcDbEntity
  8
画層0
100
AcDbPolyline
  6
CONTINUOUS
 90
     3
 70
     1
 10
145
  20
98.75
 10
145
  20
101.25
 10
140
  20
100
  0
SOLID
  5
1A4
100
AcDbEntity
  8
画層0
100
AcDbTrace
 10
145
 20
98.75
 30
0.0
 11
145
 21
101.25
 31
0.0
 12
140
 22
100
 32
0.0
 13
140
 23
100
 33
0.0
  0
LINE
  5
1A5
100
AcDbEntity
  8
画層0
100
AcDbLine
  6
CONTINUOUS
 10
139.5
 20
110
 11
139.5
 21
90
  0
LINE
  5
1A6
100
AcDbEntity
  8
画層0
100
AcDbLine
  6
CONTINUOUS
 10
140.5
 20
110
 11
140.5
 21
90
  0
LINE
  5
1A7
100
AcDbEntity
  8
画層0
100
AcDbLine
  6
CONTINUOUS
 10
134.5
 20
105
 11
134.5
 21
95
  0
LINE
  5
1A8
100
AcDbEntity
  8
画層0
100
AcDbLine
  6
CONTINUOUS
 10
135.5
 20
105
 11
135.5
 21
95
  0
LWPOLYLINE
  5
1A9
100
AcDbEntity
  8
画層0
100
AcDbPolyline
  6
CONTINUOUS
 90
     4
 70
     1
 10
134.5
  20
95
 10
135.5
  20
95
 10
135.5
  20
105
 10
134.5
  20
105
  0
SOLID
  5
1AA
100
AcDbEntity
  8
画層0
100
AcDbTrace
 10
134.5
 20
95
 30
0.0
 11
135.5
 21
95
 31
0.0
 12
134.5
 22
105
 32
0.0
 13
135.5
 23
105
 33
0.0
  0
LWPOLYLINE
  5
1AB
100
AcDbEntity
  8
画層0
100
AcDbPolyline
  6
CONTINUOUS
 90
     4
 70
     1
 10
139.5
  20
90
 10
140.5
  20
90
 10
140.5
  20
110
 10
139.5
  20
110
  0
SOLID
  5
1AC
100
AcDbEntity
  8
画層0
100
AcDbTrace
 10
139.5
 20
90
 30
0.0
 11
140.5
 21
90
 31
0.0
 12
139.5
 22
110
 32
0.0
 13
140.5
 23
110
 33
0.0
  0
LINE
  5
1AD
100
AcDbEntity
  8
画層0
100
AcDbLine
  6
CONTINUOUS
 10
150
 20
92.5
 11
150
 21
90
  0
LINE
  5
1AE
100
AcDbEntity
  8
画層0
100
AcDbLine
  6
CONTINUOUS
 10
150
 20
107.5
 11
150
 21
110
  0
LINE
  5
1AF
100
AcDbEntity
  8
画層0
100
AcDbLine
  6
CONTINUOUS
 10
150
 20
92.5
 11
150
 21
100
  0
LINE
  5
1B0
100
AcDbEntity
  8
画層0
100
AcDbLine
  6
CONTINUOUS
 10
150
 20
110
 11
150
 21
150
  0
LINE
  5
1B1
100
AcDbEntity
  8
画層0
100
AcDbLine
  6
CONTINUOUS
 10
120
 20
160
 11
130
 21
160
  0
LINE
  5
1B2
100
AcDbEntity
  8
画層0
100
AcDbLine
  6
CONTINUOUS
 10
130
 20
100
 11
120
 21
100
  0
LINE
  5
1B3
100
AcDbEntity
  8
画層0
100
AcDbLine
  6
CONTINUOUS
 10
120
 20
100
 11
120
 21
160
  0
LINE
  5
1B4
100
AcDbEntity
  8
画層0
100
AcDbLine
  6
CONTINUOUS
 10
80
 20
160
 11
70
 21
160
  0
LINE
  5
1B5
100
AcDbEntity
  8
画層0
100
AcDbLine
  6
CONTINUOUS
 10
70
 20
160
 11
70
 21
60
  0
LINE
  5
1B6
100
AcDbEntity
  8
画層0
100
AcDbLine
  6
CONTINUOUS
 10
70
 20
60
 11
130
 21
60
  0
LINE
  5
1B7
100
AcDbEntity
  8
画層0
100
AcDbLine
  6
CONTINUOUS
 10
100
 20
150
 11
100
 21
130
  0
LINE
  5
1B8
100
AcDbEntity
  8
画層0
100
AcDbLine
  6
CONTINUOUS
 10
100
 20
130
 11
150
 21
130
  0
LINE
  5
1B9
100
AcDbEntity
  8
画層0
100
AcDbLine
  6
CONTINUOUS
 10
150
 20
130
 11
190
 21
130
  0
LINE
  5
1BA
100
AcDbEntity
  8
画層0
100
AcDbLine
  6
CONTINUOUS
 10
30
 20
60
 11
25
 21
62.5
  0
LINE
  5
1BB
100
AcDbEntity
  8
画層0
100
AcDbLine
  6
CONTINUOUS
 10
30
 20
60
 11
25
 21
57.5
  0
LINE
  5
1BC
100
AcDbEntity
  8
画層0
100
AcDbLine
  6
CONTINUOUS
 10
10
 20
57.5
 11
10
 21
62.5
  0
LINE
  5
1BD
100
AcDbEntity
  8
画層0
100
AcDbLine
  6
CONTINUOUS
 10
25
 20
62.5
 11
10
 21
62.5
  0
LINE
  5
1BE
100
AcDbEntity
  8
画層0
100
AcDbLine
  6
CONTINUOUS
 10
25
 20
57.5
 11
10
 21
57.5
  0
LINE
  5
1BF
100
AcDbEntity
  8
画層0
100
AcDbLine
  6
CONTINUOUS
 10
30
 20
100
 11
25
 21
102.5
  0
LINE
  5
1C0
100
AcDbEntity
  8
画層0
100
AcDbLine
  6
CONTINUOUS
 10
30
 20
100
 11
25
 21
97.5
  0
LINE
  5
1C1
100
AcDbEntity
  8
画層0
100
AcDbLine
  6
CONTINUOUS
 10
10
 20
97.5
 11
10
 21
102.5
  0
LINE
  5
1C2
100
AcDbEntity
  8
画層0
100
AcDbLine
  6
CONTINUOUS
 10
25
 20
97.5
 11
10
 21
97.5
  0
LINE
  5
1C3
100
AcDbEntity
  8
画層0
100
AcDbLine
  6
CONTINUOUS
 10
25
 20
102.5
 11
10
 21
102.5
  0
LINE
  5
1C4
100
AcDbEntity
  8
画層0
100
AcDbLine
  6
CONTINUOUS
 10
190
 20
73
 11
190
 21
70
  0
LINE
  5
1C5
100
AcDbEntity
  8
画層0
100
AcDbLine
  6
CONTINUOUS
 10
190
 20
80
 11
190
 21
77
  0
LINE
  5
1C6
100
AcDbEntity
  8
画層0
100
AcDbLine
  6
CONTINUOUS
 10
190
 20
80
 11
190
 21
130
  0
LINE
  5
1C7
100
AcDbEntity
  8
画層0
100
AcDbLine
  6
CONTINUOUS
 10
190
 20
30
 11
190
 21
70
  0
LINE
  5
1C8
100
AcDbEntity
  8
画層0
100
AcDbLine
  6
CONTINUOUS
 10
195
 20
25
 11
185
 21
25
  0
LINE
  5
1C9
100
AcDbEntity
  8
画層0
100
AcDbLine
  6
CONTINUOUS
 10
195
 20
25
 11
191.666666666667
 21
20
  0
LINE
  5
1CA
100
AcDbEntity
  8
画層0
100
AcDbLine
  6
CONTINUOUS
 10
185
 20
20
 11
188.333333333333
 21
25
  0
LINE
  5
1CB
100
AcDbEntity
  8
画層0
100
AcDbLine
  6
CONTINUOUS
 10
188.333333333333
 20
20
 11
191.666666666667
 21
25
  0
LINE
  5
1CC
100
AcDbEntity
  8
画層0
100
AcDbLine
  6
CONTINUOUS
 10
190
 20
30
 11
190
 21
25
  0
LINE
  5
1CD
100
AcDbEntity
  8
画層0
100
AcDbLine
  6
CONTINUOUS
 10
185
 20
24.5
 11
195
 21
24.5
  0
LINE
  5
1CE
100
AcDbEntity
  8
画層0
100
AcDbLine
  6
CONTINUOUS
 10
185
 20
25.5
 11
195
 21
25.5
  0
LWPOLYLINE
  5
1CF
100
AcDbEntity
  8
画層0
100
AcDbPolyline
  6
CONTINUOUS
 90
     4
 70
     1
 10
195
  20
24.5
 10
185
  20
24.5
 10
185
  20
25.5
 10
195
  20
25.5
  0
SOLID
  5
1D0
100
AcDbEntity
  8
画層0
100
AcDbTrace
 10
195
 20
24.5
 30
0.0
 11
185
 21
24.5
 31
0.0
 12
195
 22
25.5
 32
0.0
 13
185
 23
25.5
 33
0.0
  0
LINE
  5
1D1
100
AcDbEntity
  8
画層0
100
AcDbLine
  6
CONTINUOUS
 10
230
 20
130
 11
190
 21
130
  0
LINE
  5
1D2
100
AcDbEntity
  8
画層0
100
AcDbLine
  6
CONTINUOUS
 10
120
 20
100
 11
30
 21
100
  0
LINE
  5
1D3
100
AcDbEntity
  8
画層0
100
AcDbLine
  6
CONTINUOUS
 10
70
 20
60
 11
30
 21
60
  0
LINE
  5
1D4
100
AcDbEntity
  8
画層0
100
AcDbLine
  6
CONTINUOUS
 10
230
 20
130
 11
235
 21
132.5
  0
LINE
  5
1D5
100
AcDbEntity
  8
画層0
100
AcDbLine
  6
CONTINUOUS
 10
230
 20
130
 11
235
 21
127.5
  0
LINE
  5
1D6
100
AcDbEntity
  8
画層0
100
AcDbLine
  6
CONTINUOUS
 10
250
 20
132.5
 11
250
 21
127.5
  0
LINE
  5
1D7
100
AcDbEntity
  8
画層0
100
AcDbLine
  6
CONTINUOUS
 10
235
 20
132.5
 11
250
 21
132.5
  0
LINE
  5
1D8
100
AcDbEntity
  8
画層0
100
AcDbLine
  6
CONTINUOUS
 10
235
 20
127.5
 11
250
 21
127.5
  0
LINE
  5
1D9
100
AcDbEntity
  8
画層0
100
AcDbLine
  6
CONTINUOUS
 10
230
 20
190
 11
210
 21
190
  0
CIRCLE
  5
1DA
100
AcDbEntity
  8
画層0
100
AcDbCircle
  6
CONTINUOUS
 10
100
 20
190
 40
1
  0
SOLID
  5
1DB
100
AcDbEntity
  8
画層0
100
AcDbTrace
 10
100.992114701314
 20
189.874666766436
 30
0.0
 11
101
 21
190
 31
0.0
 12
100.992114701314
 22
190.125333233564
 32
0.0
 13
100.992114701314
 23
190.125333233564
 33
0.0
  0
SOLID
  5
1DC
100
AcDbEntity
  8
画層0
100
AcDbTrace
 10
100.992114701314
 20
189.874666766436
 30
0.0
 11
100.992114701314
 21
190.125333233564
 31
0.0
 12
100.968583161129
 22
190.248689887165
 32
0.0
 13
100.968583161129
 23
190.248689887165
 33
0.0
  0
SOLID
  5
1DD
100
AcDbEntity
  8
画層0
100
AcDbTrace
 10
100.992114701314
 20
189.874666766436
 30
0.0
 11
100.968583161129
 21
190.248689887165
 31
0.0
 12
100.929776485888
 22
190.368124552685
 32
0.0
 13
100.929776485888
 23
190.368124552685
 33
0.0
  0
SOLID
  5
1DE
100
AcDbEntity
  8
画層0
100
AcDbTrace
 10
100.992114701314
 20
189.874666766436
 30
0.0
 11
100.929776485888
 21
190.368124552685
 31
0.0
 12
100.876306680044
 22
190.481753674102
 32
0.0
 13
100.876306680044
 23
190.481753674102
 33
0.0
  0
SOLID
  5
1DF
100
AcDbEntity
  8
画層0
100
AcDbTrace
 10
100.992114701314
 20
189.874666766436
 30
0.0
 11
100.876306680044
 21
190.481753674102
 31
0.0
 12
100.809016994375
 22
190.587785252292
 32
0.0
 13
100.809016994375
 23
190.587785252292
 33
0.0
  0
SOLID
  5
1E0
100
AcDbEntity
  8
画層0
100
AcDbTrace
 10
100.992114701314
 20
189.874666766436
 30
0.0
 11
100.809016994375
 21
190.587785252292
 31
0.0
 12
100.728968627421
 22
190.684547105929
 32
0.0
 13
100.728968627421
 23
190.684547105929
 33
0.0
  0
SOLID
  5
1E1
100
AcDbEntity
  8
画層0
100
AcDbTrace
 10
100.992114701314
 20
189.874666766436
 30
0.0
 11
100.728968627421
 21
190.684547105929
 31
0.0
 12
100.637423989749
 22
190.770513242776
 32
0.0
 13
100.637423989749
 23
190.770513242776
 33
0.0
  0
SOLID
  5
1E2
100
AcDbEntity
  8
画層0
100
AcDbTrace
 10
100.992114701314
 20
189.874666766436
 30
0.0
 11
100.637423989749
 21
190.770513242776
 31
0.0
 12
100.535826794979
 22
190.844327925502
 32
0.0
 13
100.535826794979
 23
190.844327925502
 33
0.0
  0
SOLID
  5
1E3
100
AcDbEntity
  8
画層0
100
AcDbTrace
 10
100.992114701314
 20
189.874666766436
 30
0.0
 11
100.535826794979
 21
190.844327925502
 31
0.0
 12
100.425779291565
 22
190.904827052466
 32
0.0
 13
100.425779291565
 23
190.904827052466
 33
0.0
  0
SOLID
  5
1E4
100
AcDbEntity
  8
画層0
100
AcDbTrace
 10
100.992114701314
 20
189.874666766436
 30
0.0
 11
100.425779291565
 21
190.904827052466
 31
0.0
 12
100.309016994375
 22
190.951056516295
 32
0.0
 13
100.309016994375
 23
190.951056516295
 33
0.0
  0
SOLID
  5
1E5
100
AcDbEntity
  8
画層0
100
AcDbTrace
 10
100.992114701314
 20
189.874666766436
 30
0.0
 11
100.309016994375
 21
190.951056516295
 31
0.0
 12
100.187381314586
 22
190.982287250729
 32
0.0
 13
100.187381314586
 23
190.982287250729
 33
0.0
  0
SOLID
  5
1E6
100
AcDbEntity
  8
画層0
100
AcDbTrace
 10
100.992114701314
 20
189.874666766436
 30
0.0
 11
100.187381314586
 21
190.982287250729
 31
0.0
 12
100.062790519529
 22
190.998026728428
 32
0.0
 13
100.062790519529
 23
190.998026728428
 33
0.0
  0
SOLID
  5
1E7
100
AcDbEntity
  8
画層0
100
AcDbTrace
 10
100.992114701314
 20
189.874666766436
 30
0.0
 11
100.062790519529
 21
190.998026728428
 31
0.0
 12
99.9372094804707
 22
190.998026728428
 32
0.0
 13
99.9372094804707
 23
190.998026728428
 33
0.0
  0
SOLID
  5
1E8
100
AcDbEntity
  8
画層0
100
AcDbTrace
 10
100.992114701314
 20
189.874666766436
 30
0.0
 11
99.9372094804707
 21
190.998026728428
 31
0.0
 12
99.8126186854143
 22
190.982287250729
 32
0.0
 13
99.8126186854143
 23
190.982287250729
 33
0.0
  0
SOLID
  5
1E9
100
AcDbEntity
  8
画層0
100
AcDbTrace
 10
100.992114701314
 20
189.874666766436
 30
0.0
 11
99.8126186854143
 21
190.982287250729
 31
0.0
 12
99.6909830056251
 22
190.951056516295
 32
0.0
 13
99.6909830056251
 23
190.951056516295
 33
0.0
  0
SOLID
  5
1EA
100
AcDbEntity
  8
画層0
100
AcDbTrace
 10
100.992114701314
 20
189.874666766436
 30
0.0
 11
99.6909830056251
 21
190.951056516295
 31
0.0
 12
99.5742207084349
 22
190.904827052466
 32
0.0
 13
99.5742207084349
 23
190.904827052466
 33
0.0
  0
SOLID
  5
1EB
100
AcDbEntity
  8
画層0
100
AcDbTrace
 10
100.992114701314
 20
189.874666766436
 30
0.0
 11
99.5742207084349
 21
190.904827052466
 31
0.0
 12
99.464173205021
 22
190.844327925502
 32
0.0
 13
99.464173205021
 23
190.844327925502
 33
0.0
  0
SOLID
  5
1EC
100
AcDbEntity
  8
画層0
100
AcDbTrace
 10
100.992114701314
 20
189.874666766436
 30
0.0
 11
99.464173205021
 21
190.844327925502
 31
0.0
 12
99.3625760102513
 22
190.770513242776
 32
0.0
 13
99.3625760102513
 23
190.770513242776
 33
0.0
  0
SOLID
  5
1ED
100
AcDbEntity
  8
画層0
100
AcDbTrace
 10
100.992114701314
 20
189.874666766436
 30
0.0
 11
99.3625760102513
 21
190.770513242776
 31
0.0
 12
99.2710313725786
 22
190.684547105929
 32
0.0
 13
99.2710313725786
 23
190.684547105929
 33
0.0
  0
SOLID
  5
1EE
100
AcDbEntity
  8
画層0
100
AcDbTrace
 10
100.992114701314
 20
189.874666766436
 30
0.0
 11
99.2710313725786
 21
190.684547105929
 31
0.0
 12
99.1909830056251
 22
190.587785252292
 32
0.0
 13
99.1909830056251
 23
190.587785252292
 33
0.0
  0
SOLID
  5
1EF
100
AcDbEntity
  8
画層0
100
AcDbTrace
 10
100.992114701314
 20
189.874666766436
 30
0.0
 11
99.1909830056251
 21
190.587785252292
 31
0.0
 12
99.1236933199561
 22
190.481753674102
 32
0.0
 13
99.1236933199561
 23
190.481753674102
 33
0.0
  0
SOLID
  5
1F0
100
AcDbEntity
  8
画層0
100
AcDbTrace
 10
100.992114701314
 20
189.874666766436
 30
0.0
 11
99.1236933199561
 21
190.481753674102
 31
0.0
 12
99.0702235141117
 22
190.368124552685
 32
0.0
 13
99.0702235141117
 23
190.368124552685
 33
0.0
  0
SOLID
  5
1F1
100
AcDbEntity
  8
画層0
100
AcDbTrace
 10
100.992114701314
 20
189.874666766436
 30
0.0
 11
99.0702235141117
 21
190.368124552685
 31
0.0
 12
99.0314168388714
 22
190.248689887165
 32
0.0
 13
99.0314168388714
 23
190.248689887165
 33
0.0
  0
SOLID
  5
1F2
100
AcDbEntity
  8
画層0
100
AcDbTrace
 10
100.992114701314
 20
189.874666766436
 30
0.0
 11
99.0314168388714
 21
190.248689887165
 31
0.0
 12
99.0078852986855
 22
190.125333233564
 32
0.0
 13
99.0078852986855
 23
190.125333233564
 33
0.0
  0
SOLID
  5
1F3
100
AcDbEntity
  8
画層0
100
AcDbTrace
 10
100.992114701314
 20
189.874666766436
 30
0.0
 11
99.0078852986855
 21
190.125333233564
 31
0.0
 12
99
 22
190
 32
0.0
 13
99
 23
190
 33
0.0
  0
SOLID
  5
1F4
100
AcDbEntity
  8
画層0
100
AcDbTrace
 10
100.992114701314
 20
189.874666766436
 30
0.0
 11
99
 21
190
 31
0.0
 12
99.0078852986855
 22
189.874666766436
 32
0.0
 13
99.0078852986855
 23
189.874666766436
 33
0.0
  0
SOLID
  5
1F5
100
AcDbEntity
  8
画層0
100
AcDbTrace
 10
100.992114701314
 20
189.874666766436
 30
0.0
 11
99.0078852986855
 21
189.874666766436
 31
0.0
 12
99.0314168388714
 22
189.751310112835
 32
0.0
 13
99.0314168388714
 23
189.751310112835
 33
0.0
  0
SOLID
  5
1F6
100
AcDbEntity
  8
画層0
100
AcDbTrace
 10
100.992114701314
 20
189.874666766436
 30
0.0
 11
99.0314168388714
 21
189.751310112835
 31
0.0
 12
99.0702235141117
 22
189.631875447315
 32
0.0
 13
99.0702235141117
 23
189.631875447315
 33
0.0
  0
SOLID
  5
1F7
100
AcDbEntity
  8
画層0
100
AcDbTrace
 10
100.992114701314
 20
189.874666766436
 30
0.0
 11
99.0702235141117
 21
189.631875447315
 31
0.0
 12
99.1236933199561
 22
189.518246325898
 32
0.0
 13
99.1236933199561
 23
189.518246325898
 33
0.0
  0
SOLID
  5
1F8
100
AcDbEntity
  8
画層0
100
AcDbTrace
 10
100.992114701314
 20
189.874666766436
 30
0.0
 11
99.1236933199561
 21
189.518246325898
 31
0.0
 12
99.1909830056251
 22
189.412214747708
 32
0.0
 13
99.1909830056251
 23
189.412214747708
 33
0.0
  0
SOLID
  5
1F9
100
AcDbEntity
  8
画層0
100
AcDbTrace
 10
100.992114701314
 20
189.874666766436
 30
0.0
 11
99.1909830056251
 21
189.412214747708
 31
0.0
 12
99.2710313725786
 22
189.315452894071
 32
0.0
 13
99.2710313725786
 23
189.315452894071
 33
0.0
  0
SOLID
  5
1FA
100
AcDbEntity
  8
画層0
100
AcDbTrace
 10
100.992114701314
 20
189.874666766436
 30
0.0
 11
99.2710313725786
 21
189.315452894071
 31
0.0
 12
99.3625760102513
 22
189.229486757224
 32
0.0
 13
99.3625760102513
 23
189.229486757224
 33
0.0
  0
SOLID
  5
1FB
100
AcDbEntity
  8
画層0
100
AcDbTrace
 10
100.992114701314
 20
189.874666766436
 30
0.0
 11
99.3625760102513
 21
189.229486757224
 31
0.0
 12
99.464173205021
 22
189.155672074498
 32
0.0
 13
99.464173205021
 23
189.155672074498
 33
0.0
  0
SOLID
  5
1FC
100
AcDbEntity
  8
画層0
100
AcDbTrace
 10
100.992114701314
 20
189.874666766436
 30
0.0
 11
99.464173205021
 21
189.155672074498
 31
0.0
 12
99.5742207084349
 22
189.095172947534
 32
0.0
 13
99.5742207084349
 23
189.095172947534
 33
0.0
  0
SOLID
  5
1FD
100
AcDbEntity
  8
画層0
100
AcDbTrace
 10
100.992114701314
 20
189.874666766436
 30
0.0
 11
99.5742207084349
 21
189.095172947534
 31
0.0
 12
99.6909830056251
 22
189.048943483705
 32
0.0
 13
99.6909830056251
 23
189.048943483705
 33
0.0
  0
SOLID
  5
1FE
100
AcDbEntity
  8
画層0
100
AcDbTrace
 10
100.992114701314
 20
189.874666766436
 30
0.0
 11
99.6909830056251
 21
189.048943483705
 31
0.0
 12
99.8126186854143
 22
189.017712749271
 32
0.0
 13
99.8126186854143
 23
189.017712749271
 33
0.0
  0
SOLID
  5
1FF
100
AcDbEntity
  8
画層0
100
AcDbTrace
 10
100.992114701314
 20
189.874666766436
 30
0.0
 11
99.8126186854143
 21
189.017712749271
 31
0.0
 12
99.9372094804707
 22
189.001973271572
 32
0.0
 13
99.9372094804707
 23
189.001973271572
 33
0.0
  0
SOLID
  5
200
100
AcDbEntity
  8
画層0
100
AcDbTrace
 10
100.992114701314
 20
189.874666766436
 30
0.0
 11
99.9372094804707
 21
189.001973271572
 31
0.0
 12
100.062790519529
 22
189.001973271572
 32
0.0
 13
100.062790519529
 23
189.001973271572
 33
0.0
  0
SOLID
  5
201
100
AcDbEntity
  8
画層0
100
AcDbTrace
 10
100.992114701314
 20
189.874666766436
 30
0.0
 11
100.062790519529
 21
189.001973271572
 31
0.0
 12
100.187381314586
 22
189.017712749271
 32
0.0
 13
100.187381314586
 23
189.017712749271
 33
0.0
  0
SOLID
  5
202
100
AcDbEntity
  8
画層0
100
AcDbTrace
 10
100.992114701314
 20
189.874666766436
 30
0.0
 11
100.187381314586
 21
189.017712749271
 31
0.0
 12
100.309016994375
 22
189.048943483705
 32
0.0
 13
100.309016994375
 23
189.048943483705
 33
0.0
  0
SOLID
  5
203
100
AcDbEntity
  8
画層0
100
AcDbTrace
 10
100.992114701314
 20
189.874666766436
 30
0.0
 11
100.309016994375
 21
189.048943483705
 31
0.0
 12
100.425779291565
 22
189.095172947534
 32
0.0
 13
100.425779291565
 23
189.095172947534
 33
0.0
  0
SOLID
  5
204
100
AcDbEntity
  8
画層0
100
AcDbTrace
 10
100.992114701314
 20
189.874666766436
 30
0.0
 11
100.425779291565
 21
189.095172947534
 31
0.0
 12
100.535826794979
 22
189.155672074498
 32
0.0
 13
100.535826794979
 23
189.155672074498
 33
0.0
  0
SOLID
  5
205
100
AcDbEntity
  8
画層0
100
AcDbTrace
 10
100.992114701314
 20
189.874666766436
 30
0.0
 11
100.535826794979
 21
189.155672074498
 31
0.0
 12
100.637423989749
 22
189.229486757224
 32
0.0
 13
100.637423989749
 23
189.229486757224
 33
0.0
  0
SOLID
  5
206
100
AcDbEntity
  8
画層0
100
AcDbTrace
 10
100.992114701314
 20
189.874666766436
 30
0.0
 11
100.637423989749
 21
189.229486757224
 31
0.0
 12
100.728968627421
 22
189.315452894071
 32
0.0
 13
100.728968627421
 23
189.315452894071
 33
0.0
  0
SOLID
  5
207
100
AcDbEntity
  8
画層0
100
AcDbTrace
 10
100.992114701314
 20
189.874666766436
 30
0.0
 11
100.728968627421
 21
189.315452894071
 31
0.0
 12
100.809016994375
 22
189.412214747708
 32
0.0
 13
100.809016994375
 23
189.412214747708
 33
0.0
  0
SOLID
  5
208
100
AcDbEntity
  8
画層0
100
AcDbTrace
 10
100.992114701314
 20
189.874666766436
 30
0.0
 11
100.809016994375
 21
189.412214747708
 31
0.0
 12
100.876306680044
 22
189.518246325898
 32
0.0
 13
100.876306680044
 23
189.518246325898
 33
0.0
  0
SOLID
  5
209
100
AcDbEntity
  8
画層0
100
AcDbTrace
 10
100.992114701314
 20
189.874666766436
 30
0.0
 11
100.876306680044
 21
189.518246325898
 31
0.0
 12
100.929776485888
 22
189.631875447315
 32
0.0
 13
100.929776485888
 23
189.631875447315
 33
0.0
  0
SOLID
  5
20A
100
AcDbEntity
  8
画層0
100
AcDbTrace
 10
100.992114701314
 20
189.874666766436
 30
0.0
 11
100.929776485888
 21
189.631875447315
 31
0.0
 12
100.968583161129
 22
189.751310112835
 32
0.0
 13
100.968583161129
 23
189.751310112835
 33
0.0
  0
CIRCLE
  5
20B
100
AcDbEntity
  8
画層0
100
AcDbCircle
  6
CONTINUOUS
 10
150
 20
190
 40
1
  0
SOLID
  5
20C
100
AcDbEntity
  8
画層0
100
AcDbTrace
 10
150.992114701314
 20
189.874666766436
 30
0.0
 11
151
 21
190
 31
0.0
 12
150.992114701314
 22
190.125333233564
 32
0.0
 13
150.992114701314
 23
190.125333233564
 33
0.0
  0
SOLID
  5
20D
100
AcDbEntity
  8
画層0
100
AcDbTrace
 10
150.992114701314
 20
189.874666766436
 30
0.0
 11
150.992114701314
 21
190.125333233564
 31
0.0
 12
150.968583161129
 22
190.248689887165
 32
0.0
 13
150.968583161129
 23
190.248689887165
 33
0.0
  0
SOLID
  5
20E
100
AcDbEntity
  8
画層0
100
AcDbTrace
 10
150.992114701314
 20
189.874666766436
 30
0.0
 11
150.968583161129
 21
190.248689887165
 31
0.0
 12
150.929776485888
 22
190.368124552685
 32
0.0
 13
150.929776485888
 23
190.368124552685
 33
0.0
  0
SOLID
  5
20F
100
AcDbEntity
  8
画層0
100
AcDbTrace
 10
150.992114701314
 20
189.874666766436
 30
0.0
 11
150.929776485888
 21
190.368124552685
 31
0.0
 12
150.876306680044
 22
190.481753674102
 32
0.0
 13
150.876306680044
 23
190.481753674102
 33
0.0
  0
SOLID
  5
210
100
AcDbEntity
  8
画層0
100
AcDbTrace
 10
150.992114701314
 20
189.874666766436
 30
0.0
 11
150.876306680044
 21
190.481753674102
 31
0.0
 12
150.809016994375
 22
190.587785252292
 32
0.0
 13
150.809016994375
 23
190.587785252292
 33
0.0
  0
SOLID
  5
211
100
AcDbEntity
  8
画層0
100
AcDbTrace
 10
150.992114701314
 20
189.874666766436
 30
0.0
 11
150.809016994375
 21
190.587785252292
 31
0.0
 12
150.728968627421
 22
190.684547105929
 32
0.0
 13
150.728968627421
 23
190.684547105929
 33
0.0
  0
SOLID
  5
212
100
AcDbEntity
  8
画層0
100
AcDbTrace
 10
150.992114701314
 20
189.874666766436
 30
0.0
 11
150.728968627421
 21
190.684547105929
 31
0.0
 12
150.637423989749
 22
190.770513242776
 32
0.0
 13
150.637423989749
 23
190.770513242776
 33
0.0
  0
SOLID
  5
213
100
AcDbEntity
  8
画層0
100
AcDbTrace
 10
150.992114701314
 20
189.874666766436
 30
0.0
 11
150.637423989749
 21
190.770513242776
 31
0.0
 12
150.535826794979
 22
190.844327925502
 32
0.0
 13
150.535826794979
 23
190.844327925502
 33
0.0
  0
SOLID
  5
214
100
AcDbEntity
  8
画層0
100
AcDbTrace
 10
150.992114701314
 20
189.874666766436
 30
0.0
 11
150.535826794979
 21
190.844327925502
 31
0.0
 12
150.425779291565
 22
190.904827052466
 32
0.0
 13
150.425779291565
 23
190.904827052466
 33
0.0
  0
SOLID
  5
215
100
AcDbEntity
  8
画層0
100
AcDbTrace
 10
150.992114701314
 20
189.874666766436
 30
0.0
 11
150.425779291565
 21
190.904827052466
 31
0.0
 12
150.309016994375
 22
190.951056516295
 32
0.0
 13
150.309016994375
 23
190.951056516295
 33
0.0
  0
SOLID
  5
216
100
AcDbEntity
  8
画層0
100
AcDbTrace
 10
150.992114701314
 20
189.874666766436
 30
0.0
 11
150.309016994375
 21
190.951056516295
 31
0.0
 12
150.187381314586
 22
190.982287250729
 32
0.0
 13
150.187381314586
 23
190.982287250729
 33
0.0
  0
SOLID
  5
217
100
AcDbEntity
  8
画層0
100
AcDbTrace
 10
150.992114701314
 20
189.874666766436
 30
0.0
 11
150.187381314586
 21
190.982287250729
 31
0.0
 12
150.062790519529
 22
190.998026728428
 32
0.0
 13
150.062790519529
 23
190.998026728428
 33
0.0
  0
SOLID
  5
218
100
AcDbEntity
  8
画層0
100
AcDbTrace
 10
150.992114701314
 20
189.874666766436
 30
0.0
 11
150.062790519529
 21
190.998026728428
 31
0.0
 12
149.937209480471
 22
190.998026728428
 32
0.0
 13
149.937209480471
 23
190.998026728428
 33
0.0
  0
SOLID
  5
219
100
AcDbEntity
  8
画層0
100
AcDbTrace
 10
150.992114701314
 20
189.874666766436
 30
0.0
 11
149.937209480471
 21
190.998026728428
 31
0.0
 12
149.812618685414
 22
190.982287250729
 32
0.0
 13
149.812618685414
 23
190.982287250729
 33
0.0
  0
SOLID
  5
21A
100
AcDbEntity
  8
画層0
100
AcDbTrace
 10
150.992114701314
 20
189.874666766436
 30
0.0
 11
149.812618685414
 21
190.982287250729
 31
0.0
 12
149.690983005625
 22
190.951056516295
 32
0.0
 13
149.690983005625
 23
190.951056516295
 33
0.0
  0
SOLID
  5
21B
100
AcDbEntity
  8
画層0
100
AcDbTrace
 10
150.992114701314
 20
189.874666766436
 30
0.0
 11
149.690983005625
 21
190.951056516295
 31
0.0
 12
149.574220708435
 22
190.904827052466
 32
0.0
 13
149.574220708435
 23
190.904827052466
 33
0.0
  0
SOLID
  5
21C
100
AcDbEntity
  8
画層0
100
AcDbTrace
 10
150.992114701314
 20
189.874666766436
 30
0.0
 11
149.574220708435
 21
190.904827052466
 31
0.0
 12
149.464173205021
 22
190.844327925502
 32
0.0
 13
149.464173205021
 23
190.844327925502
 33
0.0
  0
SOLID
  5
21D
100
AcDbEntity
  8
画層0
100
AcDbTrace
 10
150.992114701314
 20
189.874666766436
 30
0.0
 11
149.464173205021
 21
190.844327925502
 31
0.0
 12
149.362576010251
 22
190.770513242776
 32
0.0
 13
149.362576010251
 23
190.770513242776
 33
0.0
  0
SOLID
  5
21E
100
AcDbEntity
  8
画層0
100
AcDbTrace
 10
150.992114701314
 20
189.874666766436
 30
0.0
 11
149.362576010251
 21
190.770513242776
 31
0.0
 12
149.271031372579
 22
190.684547105929
 32
0.0
 13
149.271031372579
 23
190.684547105929
 33
0.0
  0
SOLID
  5
21F
100
AcDbEntity
  8
画層0
100
AcDbTrace
 10
150.992114701314
 20
189.874666766436
 30
0.0
 11
149.271031372579
 21
190.684547105929
 31
0.0
 12
149.190983005625
 22
190.587785252292
 32
0.0
 13
149.190983005625
 23
190.587785252292
 33
0.0
  0
SOLID
  5
220
100
AcDbEntity
  8
画層0
100
AcDbTrace
 10
150.992114701314
 20
189.874666766436
 30
0.0
 11
149.190983005625
 21
190.587785252292
 31
0.0
 12
149.123693319956
 22
190.481753674102
 32
0.0
 13
149.123693319956
 23
190.481753674102
 33
0.0
  0
SOLID
  5
221
100
AcDbEntity
  8
画層0
100
AcDbTrace
 10
150.992114701314
 20
189.874666766436
 30
0.0
 11
149.123693319956
 21
190.481753674102
 31
0.0
 12
149.070223514112
 22
190.368124552685
 32
0.0
 13
149.070223514112
 23
190.368124552685
 33
0.0
  0
SOLID
  5
222
100
AcDbEntity
  8
画層0
100
AcDbTrace
 10
150.992114701314
 20
189.874666766436
 30
0.0
 11
149.070223514112
 21
190.368124552685
 31
0.0
 12
149.031416838871
 22
190.248689887165
 32
0.0
 13
149.031416838871
 23
190.248689887165
 33
0.0
  0
SOLID
  5
223
100
AcDbEntity
  8
画層0
100
AcDbTrace
 10
150.992114701314
 20
189.874666766436
 30
0.0
 11
149.031416838871
 21
190.248689887165
 31
0.0
 12
149.007885298686
 22
190.125333233564
 32
0.0
 13
149.007885298686
 23
190.125333233564
 33
0.0
  0
SOLID
  5
224
100
AcDbEntity
  8
画層0
100
AcDbTrace
 10
150.992114701314
 20
189.874666766436
 30
0.0
 11
149.007885298686
 21
190.125333233564
 31
0.0
 12
149
 22
190
 32
0.0
 13
149
 23
190
 33
0.0
  0
SOLID
  5
225
100
AcDbEntity
  8
画層0
100
AcDbTrace
 10
150.992114701314
 20
189.874666766436
 30
0.0
 11
149
 21
190
 31
0.0
 12
149.007885298686
 22
189.874666766436
 32
0.0
 13
149.007885298686
 23
189.874666766436
 33
0.0
  0
SOLID
  5
226
100
AcDbEntity
  8
画層0
100
AcDbTrace
 10
150.992114701314
 20
189.874666766436
 30
0.0
 11
149.007885298686
 21
189.874666766436
 31
0.0
 12
149.031416838871
 22
189.751310112835
 32
0.0
 13
149.031416838871
 23
189.751310112835
 33
0.0
  0
SOLID
  5
227
100
AcDbEntity
  8
画層0
100
AcDbTrace
 10
150.992114701314
 20
189.874666766436
 30
0.0
 11
149.031416838871
 21
189.751310112835
 31
0.0
 12
149.070223514112
 22
189.631875447315
 32
0.0
 13
149.070223514112
 23
189.631875447315
 33
0.0
  0
SOLID
  5
228
100
AcDbEntity
  8
画層0
100
AcDbTrace
 10
150.992114701314
 20
189.874666766436
 30
0.0
 11
149.070223514112
 21
189.631875447315
 31
0.0
 12
149.123693319956
 22
189.518246325898
 32
0.0
 13
149.123693319956
 23
189.518246325898
 33
0.0
  0
SOLID
  5
229
100
AcDbEntity
  8
画層0
100
AcDbTrace
 10
150.992114701314
 20
189.874666766436
 30
0.0
 11
149.123693319956
 21
189.518246325898
 31
0.0
 12
149.190983005625
 22
189.412214747708
 32
0.0
 13
149.190983005625
 23
189.412214747708
 33
0.0
  0
SOLID
  5
22A
100
AcDbEntity
  8
画層0
100
AcDbTrace
 10
150.992114701314
 20
189.874666766436
 30
0.0
 11
149.190983005625
 21
189.412214747708
 31
0.0
 12
149.271031372579
 22
189.315452894071
 32
0.0
 13
149.271031372579
 23
189.315452894071
 33
0.0
  0
SOLID
  5
22B
100
AcDbEntity
  8
画層0
100
AcDbTrace
 10
150.992114701314
 20
189.874666766436
 30
0.0
 11
149.271031372579
 21
189.315452894071
 31
0.0
 12
149.362576010251
 22
189.229486757224
 32
0.0
 13
149.362576010251
 23
189.229486757224
 33
0.0
  0
SOLID
  5
22C
100
AcDbEntity
  8
画層0
100
AcDbTrace
 10
150.992114701314
 20
189.874666766436
 30
0.0
 11
149.362576010251
 21
189.229486757224
 31
0.0
 12
149.464173205021
 22
189.155672074498
 32
0.0
 13
149.464173205021
 23
189.155672074498
 33
0.0
  0
SOLID
  5
22D
100
AcDbEntity
  8
画層0
100
AcDbTrace
 10
150.992114701314
 20
189.874666766436
 30
0.0
 11
149.464173205021
 21
189.155672074498
 31
0.0
 12
149.574220708435
 22
189.095172947534
 32
0.0
 13
149.574220708435
 23
189.095172947534
 33
0.0
  0
SOLID
  5
22E
100
AcDbEntity
  8
画層0
100
AcDbTrace
 10
150.992114701314
 20
189.874666766436
 30
0.0
 11
149.574220708435
 21
189.095172947534
 31
0.0
 12
149.690983005625
 22
189.048943483705
 32
0.0
 13
149.690983005625
 23
189.048943483705
 33
0.0
  0
SOLID
  5
22F
100
AcDbEntity
  8
画層0
100
AcDbTrace
 10
150.992114701314
 20
189.874666766436
 30
0.0
 11
149.690983005625
 21
189.048943483705
 31
0.0
 12
149.812618685414
 22
189.017712749271
 32
0.0
 13
149.812618685414
 23
189.017712749271
 33
0.0
  0
SOLID
  5
230
100
AcDbEntity
  8
画層0
100
AcDbTrace
 10
150.992114701314
 20
189.874666766436
 30
0.0
 11
149.812618685414
 21
189.017712749271
 31
0.0
 12
149.937209480471
 22
189.001973271572
 32
0.0
 13
149.937209480471
 23
189.001973271572
 33
0.0
  0
SOLID
  5
231
100
AcDbEntity
  8
画層0
100
AcDbTrace
 10
150.992114701314
 20
189.874666766436
 30
0.0
 11
149.937209480471
 21
189.001973271572
 31
0.0
 12
150.062790519529
 22
189.001973271572
 32
0.0
 13
150.062790519529
 23
189.001973271572
 33
0.0
  0
SOLID
  5
232
100
AcDbEntity
  8
画層0
100
AcDbTrace
 10
150.992114701314
 20
189.874666766436
 30
0.0
 11
150.062790519529
 21
189.001973271572
 31
0.0
 12
150.187381314586
 22
189.017712749271
 32
0.0
 13
150.187381314586
 23
189.017712749271
 33
0.0
  0
SOLID
  5
233
100
AcDbEntity
  8
画層0
100
AcDbTrace
 10
150.992114701314
 20
189.874666766436
 30
0.0
 11
150.187381314586
 21
189.017712749271
 31
0.0
 12
150.309016994375
 22
189.048943483705
 32
0.0
 13
150.309016994375
 23
189.048943483705
 33
0.0
  0
SOLID
  5
234
100
AcDbEntity
  8
画層0
100
AcDbTrace
 10
150.992114701314
 20
189.874666766436
 30
0.0
 11
150.309016994375
 21
189.048943483705
 31
0.0
 12
150.425779291565
 22
189.095172947534
 32
0.0
 13
150.425779291565
 23
189.095172947534
 33
0.0
  0
SOLID
  5
235
100
AcDbEntity
  8
画層0
100
AcDbTrace
 10
150.992114701314
 20
189.874666766436
 30
0.0
 11
150.425779291565
 21
189.095172947534
 31
0.0
 12
150.535826794979
 22
189.155672074498
 32
0.0
 13
150.535826794979
 23
189.155672074498
 33
0.0
  0
SOLID
  5
236
100
AcDbEntity
  8
画層0
100
AcDbTrace
 10
150.992114701314
 20
189.874666766436
 30
0.0
 11
150.535826794979
 21
189.155672074498
 31
0.0
 12
150.637423989749
 22
189.229486757224
 32
0.0
 13
150.637423989749
 23
189.229486757224
 33
0.0
  0
SOLID
  5
237
100
AcDbEntity
  8
画層0
100
AcDbTrace
 10
150.992114701314
 20
189.874666766436
 30
0.0
 11
150.637423989749
 21
189.229486757224
 31
0.0
 12
150.728968627421
 22
189.315452894071
 32
0.0
 13
150.728968627421
 23
189.315452894071
 33
0.0
  0
SOLID
  5
238
100
AcDbEntity
  8
画層0
100
AcDbTrace
 10
150.992114701314
 20
189.874666766436
 30
0.0
 11
150.728968627421
 21
189.315452894071
 31
0.0
 12
150.809016994375
 22
189.412214747708
 32
0.0
 13
150.809016994375
 23
189.412214747708
 33
0.0
  0
SOLID
  5
239
100
AcDbEntity
  8
画層0
100
AcDbTrace
 10
150.992114701314
 20
189.874666766436
 30
0.0
 11
150.809016994375
 21
189.412214747708
 31
0.0
 12
150.876306680044
 22
189.518246325898
 32
0.0
 13
150.876306680044
 23
189.518246325898
 33
0.0
  0
SOLID
  5
23A
100
AcDbEntity
  8
画層0
100
AcDbTrace
 10
150.992114701314
 20
189.874666766436
 30
0.0
 11
150.876306680044
 21
189.518246325898
 31
0.0
 12
150.929776485888
 22
189.631875447315
 32
0.0
 13
150.929776485888
 23
189.631875447315
 33
0.0
  0
SOLID
  5
23B
100
AcDbEntity
  8
画層0
100
AcDbTrace
 10
150.992114701314
 20
189.874666766436
 30
0.0
 11
150.929776485888
 21
189.631875447315
 31
0.0
 12
150.968583161129
 22
189.751310112835
 32
0.0
 13
150.968583161129
 23
189.751310112835
 33
0.0
  0
CIRCLE
  5
23C
100
AcDbEntity
  8
画層0
100
AcDbCircle
  6
CONTINUOUS
 10
150
 20
130
 40
1
  0
SOLID
  5
23D
100
AcDbEntity
  8
画層0
100
AcDbTrace
 10
150.992114701314
 20
129.874666766436
 30
0.0
 11
151
 21
130
 31
0.0
 12
150.992114701314
 22
130.125333233564
 32
0.0
 13
150.992114701314
 23
130.125333233564
 33
0.0
  0
SOLID
  5
23E
100
AcDbEntity
  8
画層0
100
AcDbTrace
 10
150.992114701314
 20
129.874666766436
 30
0.0
 11
150.992114701314
 21
130.125333233564
 31
0.0
 12
150.968583161129
 22
130.248689887165
 32
0.0
 13
150.968583161129
 23
130.248689887165
 33
0.0
  0
SOLID
  5
23F
100
AcDbEntity
  8
画層0
100
AcDbTrace
 10
150.992114701314
 20
129.874666766436
 30
0.0
 11
150.968583161129
 21
130.248689887165
 31
0.0
 12
150.929776485888
 22
130.368124552685
 32
0.0
 13
150.929776485888
 23
130.368124552685
 33
0.0
  0
SOLID
  5
240
100
AcDbEntity
  8
画層0
100
AcDbTrace
 10
150.992114701314
 20
129.874666766436
 30
0.0
 11
150.929776485888
 21
130.368124552685
 31
0.0
 12
150.876306680044
 22
130.481753674102
 32
0.0
 13
150.876306680044
 23
130.481753674102
 33
0.0
  0
SOLID
  5
241
100
AcDbEntity
  8
画層0
100
AcDbTrace
 10
150.992114701314
 20
129.874666766436
 30
0.0
 11
150.876306680044
 21
130.481753674102
 31
0.0
 12
150.809016994375
 22
130.587785252292
 32
0.0
 13
150.809016994375
 23
130.587785252292
 33
0.0
  0
SOLID
  5
242
100
AcDbEntity
  8
画層0
100
AcDbTrace
 10
150.992114701314
 20
129.874666766436
 30
0.0
 11
150.809016994375
 21
130.587785252292
 31
0.0
 12
150.728968627421
 22
130.684547105929
 32
0.0
 13
150.728968627421
 23
130.684547105929
 33
0.0
  0
SOLID
  5
243
100
AcDbEntity
  8
画層0
100
AcDbTrace
 10
150.992114701314
 20
129.874666766436
 30
0.0
 11
150.728968627421
 21
130.684547105929
 31
0.0
 12
150.637423989749
 22
130.770513242776
 32
0.0
 13
150.637423989749
 23
130.770513242776
 33
0.0
  0
SOLID
  5
244
100
AcDbEntity
  8
画層0
100
AcDbTrace
 10
150.992114701314
 20
129.874666766436
 30
0.0
 11
150.637423989749
 21
130.770513242776
 31
0.0
 12
150.535826794979
 22
130.844327925502
 32
0.0
 13
150.535826794979
 23
130.844327925502
 33
0.0
  0
SOLID
  5
245
100
AcDbEntity
  8
画層0
100
AcDbTrace
 10
150.992114701314
 20
129.874666766436
 30
0.0
 11
150.535826794979
 21
130.844327925502
 31
0.0
 12
150.425779291565
 22
130.904827052466
 32
0.0
 13
150.425779291565
 23
130.904827052466
 33
0.0
  0
SOLID
  5
246
100
AcDbEntity
  8
画層0
100
AcDbTrace
 10
150.992114701314
 20
129.874666766436
 30
0.0
 11
150.425779291565
 21
130.904827052466
 31
0.0
 12
150.309016994375
 22
130.951056516295
 32
0.0
 13
150.309016994375
 23
130.951056516295
 33
0.0
  0
SOLID
  5
247
100
AcDbEntity
  8
画層0
100
AcDbTrace
 10
150.992114701314
 20
129.874666766436
 30
0.0
 11
150.309016994375
 21
130.951056516295
 31
0.0
 12
150.187381314586
 22
130.982287250729
 32
0.0
 13
150.187381314586
 23
130.982287250729
 33
0.0
  0
SOLID
  5
248
100
AcDbEntity
  8
画層0
100
AcDbTrace
 10
150.992114701314
 20
129.874666766436
 30
0.0
 11
150.187381314586
 21
130.982287250729
 31
0.0
 12
150.062790519529
 22
130.998026728428
 32
0.0
 13
150.062790519529
 23
130.998026728428
 33
0.0
  0
SOLID
  5
249
100
AcDbEntity
  8
画層0
100
AcDbTrace
 10
150.992114701314
 20
129.874666766436
 30
0.0
 11
150.062790519529
 21
130.998026728428
 31
0.0
 12
149.937209480471
 22
130.998026728428
 32
0.0
 13
149.937209480471
 23
130.998026728428
 33
0.0
  0
SOLID
  5
24A
100
AcDbEntity
  8
画層0
100
AcDbTrace
 10
150.992114701314
 20
129.874666766436
 30
0.0
 11
149.937209480471
 21
130.998026728428
 31
0.0
 12
149.812618685414
 22
130.982287250729
 32
0.0
 13
149.812618685414
 23
130.982287250729
 33
0.0
  0
SOLID
  5
24B
100
AcDbEntity
  8
画層0
100
AcDbTrace
 10
150.992114701314
 20
129.874666766436
 30
0.0
 11
149.812618685414
 21
130.982287250729
 31
0.0
 12
149.690983005625
 22
130.951056516295
 32
0.0
 13
149.690983005625
 23
130.951056516295
 33
0.0
  0
SOLID
  5
24C
100
AcDbEntity
  8
画層0
100
AcDbTrace
 10
150.992114701314
 20
129.874666766436
 30
0.0
 11
149.690983005625
 21
130.951056516295
 31
0.0
 12
149.574220708435
 22
130.904827052466
 32
0.0
 13
149.574220708435
 23
130.904827052466
 33
0.0
  0
SOLID
  5
24D
100
AcDbEntity
  8
画層0
100
AcDbTrace
 10
150.992114701314
 20
129.874666766436
 30
0.0
 11
149.574220708435
 21
130.904827052466
 31
0.0
 12
149.464173205021
 22
130.844327925502
 32
0.0
 13
149.464173205021
 23
130.844327925502
 33
0.0
  0
SOLID
  5
24E
100
AcDbEntity
  8
画層0
100
AcDbTrace
 10
150.992114701314
 20
129.874666766436
 30
0.0
 11
149.464173205021
 21
130.844327925502
 31
0.0
 12
149.362576010251
 22
130.770513242776
 32
0.0
 13
149.362576010251
 23
130.770513242776
 33
0.0
  0
SOLID
  5
24F
100
AcDbEntity
  8
画層0
100
AcDbTrace
 10
150.992114701314
 20
129.874666766436
 30
0.0
 11
149.362576010251
 21
130.770513242776
 31
0.0
 12
149.271031372579
 22
130.684547105929
 32
0.0
 13
149.271031372579
 23
130.684547105929
 33
0.0
  0
SOLID
  5
250
100
AcDbEntity
  8
画層0
100
AcDbTrace
 10
150.992114701314
 20
129.874666766436
 30
0.0
 11
149.271031372579
 21
130.684547105929
 31
0.0
 12
149.190983005625
 22
130.587785252292
 32
0.0
 13
149.190983005625
 23
130.587785252292
 33
0.0
  0
SOLID
  5
251
100
AcDbEntity
  8
画層0
100
AcDbTrace
 10
150.992114701314
 20
129.874666766436
 30
0.0
 11
149.190983005625
 21
130.587785252292
 31
0.0
 12
149.123693319956
 22
130.481753674102
 32
0.0
 13
149.123693319956
 23
130.481753674102
 33
0.0
  0
SOLID
  5
252
100
AcDbEntity
  8
画層0
100
AcDbTrace
 10
150.992114701314
 20
129.874666766436
 30
0.0
 11
149.123693319956
 21
130.481753674102
 31
0.0
 12
149.070223514112
 22
130.368124552685
 32
0.0
 13
149.070223514112
 23
130.368124552685
 33
0.0
  0
SOLID
  5
253
100
AcDbEntity
  8
画層0
100
AcDbTrace
 10
150.992114701314
 20
129.874666766436
 30
0.0
 11
149.070223514112
 21
130.368124552685
 31
0.0
 12
149.031416838871
 22
130.248689887165
 32
0.0
 13
149.031416838871
 23
130.248689887165
 33
0.0
  0
SOLID
  5
254
100
AcDbEntity
  8
画層0
100
AcDbTrace
 10
150.992114701314
 20
129.874666766436
 30
0.0
 11
149.031416838871
 21
130.248689887165
 31
0.0
 12
149.007885298686
 22
130.125333233564
 32
0.0
 13
149.007885298686
 23
130.125333233564
 33
0.0
  0
SOLID
  5
255
100
AcDbEntity
  8
画層0
100
AcDbTrace
 10
150.992114701314
 20
129.874666766436
 30
0.0
 11
149.007885298686
 21
130.125333233564
 31
0.0
 12
149
 22
130
 32
0.0
 13
149
 23
130
 33
0.0
  0
SOLID
  5
256
100
AcDbEntity
  8
画層0
100
AcDbTrace
 10
150.992114701314
 20
129.874666766436
 30
0.0
 11
149
 21
130
 31
0.0
 12
149.007885298686
 22
129.874666766436
 32
0.0
 13
149.007885298686
 23
129.874666766436
 33
0.0
  0
SOLID
  5
257
100
AcDbEntity
  8
画層0
100
AcDbTrace
 10
150.992114701314
 20
129.874666766436
 30
0.0
 11
149.007885298686
 21
129.874666766436
 31
0.0
 12
149.031416838871
 22
129.751310112835
 32
0.0
 13
149.031416838871
 23
129.751310112835
 33
0.0
  0
SOLID
  5
258
100
AcDbEntity
  8
画層0
100
AcDbTrace
 10
150.992114701314
 20
129.874666766436
 30
0.0
 11
149.031416838871
 21
129.751310112835
 31
0.0
 12
149.070223514112
 22
129.631875447315
 32
0.0
 13
149.070223514112
 23
129.631875447315
 33
0.0
  0
SOLID
  5
259
100
AcDbEntity
  8
画層0
100
AcDbTrace
 10
150.992114701314
 20
129.874666766436
 30
0.0
 11
149.070223514112
 21
129.631875447315
 31
0.0
 12
149.123693319956
 22
129.518246325898
 32
0.0
 13
149.123693319956
 23
129.518246325898
 33
0.0
  0
SOLID
  5
25A
100
AcDbEntity
  8
画層0
100
AcDbTrace
 10
150.992114701314
 20
129.874666766436
 30
0.0
 11
149.123693319956
 21
129.518246325898
 31
0.0
 12
149.190983005625
 22
129.412214747708
 32
0.0
 13
149.190983005625
 23
129.412214747708
 33
0.0
  0
SOLID
  5
25B
100
AcDbEntity
  8
画層0
100
AcDbTrace
 10
150.992114701314
 20
129.874666766436
 30
0.0
 11
149.190983005625
 21
129.412214747708
 31
0.0
 12
149.271031372579
 22
129.315452894071
 32
0.0
 13
149.271031372579
 23
129.315452894071
 33
0.0
  0
SOLID
  5
25C
100
AcDbEntity
  8
画層0
100
AcDbTrace
 10
150.992114701314
 20
129.874666766436
 30
0.0
 11
149.271031372579
 21
129.315452894071
 31
0.0
 12
149.362576010251
 22
129.229486757224
 32
0.0
 13
149.362576010251
 23
129.229486757224
 33
0.0
  0
SOLID
  5
25D
100
AcDbEntity
  8
画層0
100
AcDbTrace
 10
150.992114701314
 20
129.874666766436
 30
0.0
 11
149.362576010251
 21
129.229486757224
 31
0.0
 12
149.464173205021
 22
129.155672074498
 32
0.0
 13
149.464173205021
 23
129.155672074498
 33
0.0
  0
SOLID
  5
25E
100
AcDbEntity
  8
画層0
100
AcDbTrace
 10
150.992114701314
 20
129.874666766436
 30
0.0
 11
149.464173205021
 21
129.155672074498
 31
0.0
 12
149.574220708435
 22
129.095172947534
 32
0.0
 13
149.574220708435
 23
129.095172947534
 33
0.0
  0
SOLID
  5
25F
100
AcDbEntity
  8
画層0
100
AcDbTrace
 10
150.992114701314
 20
129.874666766436
 30
0.0
 11
149.574220708435
 21
129.095172947534
 31
0.0
 12
149.690983005625
 22
129.048943483705
 32
0.0
 13
149.690983005625
 23
129.048943483705
 33
0.0
  0
SOLID
  5
260
100
AcDbEntity
  8
画層0
100
AcDbTrace
 10
150.992114701314
 20
129.874666766436
 30
0.0
 11
149.690983005625
 21
129.048943483705
 31
0.0
 12
149.812618685414
 22
129.017712749271
 32
0.0
 13
149.812618685414
 23
129.017712749271
 33
0.0
  0
SOLID
  5
261
100
AcDbEntity
  8
画層0
100
AcDbTrace
 10
150.992114701314
 20
129.874666766436
 30
0.0
 11
149.812618685414
 21
129.017712749271
 31
0.0
 12
149.937209480471
 22
129.001973271572
 32
0.0
 13
149.937209480471
 23
129.001973271572
 33
0.0
  0
SOLID
  5
262
100
AcDbEntity
  8
画層0
100
AcDbTrace
 10
150.992114701314
 20
129.874666766436
 30
0.0
 11
149.937209480471
 21
129.001973271572
 31
0.0
 12
150.062790519529
 22
129.001973271572
 32
0.0
 13
150.062790519529
 23
129.001973271572
 33
0.0
  0
SOLID
  5
263
100
AcDbEntity
  8
画層0
100
AcDbTrace
 10
150.992114701314
 20
129.874666766436
 30
0.0
 11
150.062790519529
 21
129.001973271572
 31
0.0
 12
150.187381314586
 22
129.017712749271
 32
0.0
 13
150.187381314586
 23
129.017712749271
 33
0.0
  0
SOLID
  5
264
100
AcDbEntity
  8
画層0
100
AcDbTrace
 10
150.992114701314
 20
129.874666766436
 30
0.0
 11
150.187381314586
 21
129.017712749271
 31
0.0
 12
150.309016994375
 22
129.048943483705
 32
0.0
 13
150.309016994375
 23
129.048943483705
 33
0.0
  0
SOLID
  5
265
100
AcDbEntity
  8
画層0
100
AcDbTrace
 10
150.992114701314
 20
129.874666766436
 30
0.0
 11
150.309016994375
 21
129.048943483705
 31
0.0
 12
150.425779291565
 22
129.095172947534
 32
0.0
 13
150.425779291565
 23
129.095172947534
 33
0.0
  0
SOLID
  5
266
100
AcDbEntity
  8
画層0
100
AcDbTrace
 10
150.992114701314
 20
129.874666766436
 30
0.0
 11
150.425779291565
 21
129.095172947534
 31
0.0
 12
150.535826794979
 22
129.155672074498
 32
0.0
 13
150.535826794979
 23
129.155672074498
 33
0.0
  0
SOLID
  5
267
100
AcDbEntity
  8
画層0
100
AcDbTrace
 10
150.992114701314
 20
129.874666766436
 30
0.0
 11
150.535826794979
 21
129.155672074498
 31
0.0
 12
150.637423989749
 22
129.229486757224
 32
0.0
 13
150.637423989749
 23
129.229486757224
 33
0.0
  0
SOLID
  5
268
100
AcDbEntity
  8
画層0
100
AcDbTrace
 10
150.992114701314
 20
129.874666766436
 30
0.0
 11
150.637423989749
 21
129.229486757224
 31
0.0
 12
150.728968627421
 22
129.315452894071
 32
0.0
 13
150.728968627421
 23
129.315452894071
 33
0.0
  0
SOLID
  5
269
100
AcDbEntity
  8
画層0
100
AcDbTrace
 10
150.992114701314
 20
129.874666766436
 30
0.0
 11
150.728968627421
 21
129.315452894071
 31
0.0
 12
150.809016994375
 22
129.412214747708
 32
0.0
 13
150.809016994375
 23
129.412214747708
 33
0.0
  0
SOLID
  5
26A
100
AcDbEntity
  8
画層0
100
AcDbTrace
 10
150.992114701314
 20
129.874666766436
 30
0.0
 11
150.809016994375
 21
129.412214747708
 31
0.0
 12
150.876306680044
 22
129.518246325898
 32
0.0
 13
150.876306680044
 23
129.518246325898
 33
0.0
  0
SOLID
  5
26B
100
AcDbEntity
  8
画層0
100
AcDbTrace
 10
150.992114701314
 20
129.874666766436
 30
0.0
 11
150.876306680044
 21
129.518246325898
 31
0.0
 12
150.929776485888
 22
129.631875447315
 32
0.0
 13
150.929776485888
 23
129.631875447315
 33
0.0
  0
SOLID
  5
26C
100
AcDbEntity
  8
画層0
100
AcDbTrace
 10
150.992114701314
 20
129.874666766436
 30
0.0
 11
150.929776485888
 21
129.631875447315
 31
0.0
 12
150.968583161129
 22
129.751310112835
 32
0.0
 13
150.968583161129
 23
129.751310112835
 33
0.0
  0
CIRCLE
  5
26D
100
AcDbEntity
  8
画層0
100
AcDbCircle
  6
CONTINUOUS
 10
120
 20
100
 40
1
  0
SOLID
  5
26E
100
AcDbEntity
  8
画層0
100
AcDbTrace
 10
120.992114701314
 20
99.8746667664357
 30
0.0
 11
121
 21
100
 31
0.0
 12
120.992114701314
 22
100.125333233564
 32
0.0
 13
120.992114701314
 23
100.125333233564
 33
0.0
  0
SOLID
  5
26F
100
AcDbEntity
  8
画層0
100
AcDbTrace
 10
120.992114701314
 20
99.8746667664357
 30
0.0
 11
120.992114701314
 21
100.125333233564
 31
0.0
 12
120.968583161129
 22
100.248689887165
 32
0.0
 13
120.968583161129
 23
100.248689887165
 33
0.0
  0
SOLID
  5
270
100
AcDbEntity
  8
画層0
100
AcDbTrace
 10
120.992114701314
 20
99.8746667664357
 30
0.0
 11
120.968583161129
 21
100.248689887165
 31
0.0
 12
120.929776485888
 22
100.368124552685
 32
0.0
 13
120.929776485888
 23
100.368124552685
 33
0.0
  0
SOLID
  5
271
100
AcDbEntity
  8
画層0
100
AcDbTrace
 10
120.992114701314
 20
99.8746667664357
 30
0.0
 11
120.929776485888
 21
100.368124552685
 31
0.0
 12
120.876306680044
 22
100.481753674102
 32
0.0
 13
120.876306680044
 23
100.481753674102
 33
0.0
  0
SOLID
  5
272
100
AcDbEntity
  8
画層0
100
AcDbTrace
 10
120.992114701314
 20
99.8746667664357
 30
0.0
 11
120.876306680044
 21
100.481753674102
 31
0.0
 12
120.809016994375
 22
100.587785252292
 32
0.0
 13
120.809016994375
 23
100.587785252292
 33
0.0
  0
SOLID
  5
273
100
AcDbEntity
  8
画層0
100
AcDbTrace
 10
120.992114701314
 20
99.8746667664357
 30
0.0
 11
120.809016994375
 21
100.587785252292
 31
0.0
 12
120.728968627421
 22
100.684547105929
 32
0.0
 13
120.728968627421
 23
100.684547105929
 33
0.0
  0
SOLID
  5
274
100
AcDbEntity
  8
画層0
100
AcDbTrace
 10
120.992114701314
 20
99.8746667664357
 30
0.0
 11
120.728968627421
 21
100.684547105929
 31
0.0
 12
120.637423989749
 22
100.770513242776
 32
0.0
 13
120.637423989749
 23
100.770513242776
 33
0.0
  0
SOLID
  5
275
100
AcDbEntity
  8
画層0
100
AcDbTrace
 10
120.992114701314
 20
99.8746667664357
 30
0.0
 11
120.637423989749
 21
100.770513242776
 31
0.0
 12
120.535826794979
 22
100.844327925502
 32
0.0
 13
120.535826794979
 23
100.844327925502
 33
0.0
  0
SOLID
  5
276
100
AcDbEntity
  8
画層0
100
AcDbTrace
 10
120.992114701314
 20
99.8746667664357
 30
0.0
 11
120.535826794979
 21
100.844327925502
 31
0.0
 12
120.425779291565
 22
100.904827052466
 32
0.0
 13
120.425779291565
 23
100.904827052466
 33
0.0
  0
SOLID
  5
277
100
AcDbEntity
  8
画層0
100
AcDbTrace
 10
120.992114701314
 20
99.8746667664357
 30
0.0
 11
120.425779291565
 21
100.904827052466
 31
0.0
 12
120.309016994375
 22
100.951056516295
 32
0.0
 13
120.309016994375
 23
100.951056516295
 33
0.0
  0
SOLID
  5
278
100
AcDbEntity
  8
画層0
100
AcDbTrace
 10
120.992114701314
 20
99.8746667664357
 30
0.0
 11
120.309016994375
 21
100.951056516295
 31
0.0
 12
120.187381314586
 22
100.982287250729
 32
0.0
 13
120.187381314586
 23
100.982287250729
 33
0.0
  0
SOLID
  5
279
100
AcDbEntity
  8
画層0
100
AcDbTrace
 10
120.992114701314
 20
99.8746667664357
 30
0.0
 11
120.187381314586
 21
100.982287250729
 31
0.0
 12
120.062790519529
 22
100.998026728428
 32
0.0
 13
120.062790519529
 23
100.998026728428
 33
0.0
  0
SOLID
  5
27A
100
AcDbEntity
  8
画層0
100
AcDbTrace
 10
120.992114701314
 20
99.8746667664357
 30
0.0
 11
120.062790519529
 21
100.998026728428
 31
0.0
 12
119.937209480471
 22
100.998026728428
 32
0.0
 13
119.937209480471
 23
100.998026728428
 33
0.0
  0
SOLID
  5
27B
100
AcDbEntity
  8
画層0
100
AcDbTrace
 10
120.992114701314
 20
99.8746667664357
 30
0.0
 11
119.937209480471
 21
100.998026728428
 31
0.0
 12
119.812618685414
 22
100.982287250729
 32
0.0
 13
119.812618685414
 23
100.982287250729
 33
0.0
  0
SOLID
  5
27C
100
AcDbEntity
  8
画層0
100
AcDbTrace
 10
120.992114701314
 20
99.8746667664357
 30
0.0
 11
119.812618685414
 21
100.982287250729
 31
0.0
 12
119.690983005625
 22
100.951056516295
 32
0.0
 13
119.690983005625
 23
100.951056516295
 33
0.0
  0
SOLID
  5
27D
100
AcDbEntity
  8
画層0
100
AcDbTrace
 10
120.992114701314
 20
99.8746667664357
 30
0.0
 11
119.690983005625
 21
100.951056516295
 31
0.0
 12
119.574220708435
 22
100.904827052466
 32
0.0
 13
119.574220708435
 23
100.904827052466
 33
0.0
  0
SOLID
  5
27E
100
AcDbEntity
  8
画層0
100
AcDbTrace
 10
120.992114701314
 20
99.8746667664357
 30
0.0
 11
119.574220708435
 21
100.904827052466
 31
0.0
 12
119.464173205021
 22
100.844327925502
 32
0.0
 13
119.464173205021
 23
100.844327925502
 33
0.0
  0
SOLID
  5
27F
100
AcDbEntity
  8
画層0
100
AcDbTrace
 10
120.992114701314
 20
99.8746667664357
 30
0.0
 11
119.464173205021
 21
100.844327925502
 31
0.0
 12
119.362576010251
 22
100.770513242776
 32
0.0
 13
119.362576010251
 23
100.770513242776
 33
0.0
  0
SOLID
  5
280
100
AcDbEntity
  8
画層0
100
AcDbTrace
 10
120.992114701314
 20
99.8746667664357
 30
0.0
 11
119.362576010251
 21
100.770513242776
 31
0.0
 12
119.271031372579
 22
100.684547105929
 32
0.0
 13
119.271031372579
 23
100.684547105929
 33
0.0
  0
SOLID
  5
281
100
AcDbEntity
  8
画層0
100
AcDbTrace
 10
120.992114701314
 20
99.8746667664357
 30
0.0
 11
119.271031372579
 21
100.684547105929
 31
0.0
 12
119.190983005625
 22
100.587785252292
 32
0.0
 13
119.190983005625
 23
100.587785252292
 33
0.0
  0
SOLID
  5
282
100
AcDbEntity
  8
画層0
100
AcDbTrace
 10
120.992114701314
 20
99.8746667664357
 30
0.0
 11
119.190983005625
 21
100.587785252292
 31
0.0
 12
119.123693319956
 22
100.481753674102
 32
0.0
 13
119.123693319956
 23
100.481753674102
 33
0.0
  0
SOLID
  5
283
100
AcDbEntity
  8
画層0
100
AcDbTrace
 10
120.992114701314
 20
99.8746667664357
 30
0.0
 11
119.123693319956
 21
100.481753674102
 31
0.0
 12
119.070223514112
 22
100.368124552685
 32
0.0
 13
119.070223514112
 23
100.368124552685
 33
0.0
  0
SOLID
  5
284
100
AcDbEntity
  8
画層0
100
AcDbTrace
 10
120.992114701314
 20
99.8746667664357
 30
0.0
 11
119.070223514112
 21
100.368124552685
 31
0.0
 12
119.031416838871
 22
100.248689887165
 32
0.0
 13
119.031416838871
 23
100.248689887165
 33
0.0
  0
SOLID
  5
285
100
AcDbEntity
  8
画層0
100
AcDbTrace
 10
120.992114701314
 20
99.8746667664357
 30
0.0
 11
119.031416838871
 21
100.248689887165
 31
0.0
 12
119.007885298686
 22
100.125333233564
 32
0.0
 13
119.007885298686
 23
100.125333233564
 33
0.0
  0
SOLID
  5
286
100
AcDbEntity
  8
画層0
100
AcDbTrace
 10
120.992114701314
 20
99.8746667664357
 30
0.0
 11
119.007885298686
 21
100.125333233564
 31
0.0
 12
119
 22
100
 32
0.0
 13
119
 23
100
 33
0.0
  0
SOLID
  5
287
100
AcDbEntity
  8
画層0
100
AcDbTrace
 10
120.992114701314
 20
99.8746667664357
 30
0.0
 11
119
 21
100
 31
0.0
 12
119.007885298686
 22
99.8746667664357
 32
0.0
 13
119.007885298686
 23
99.8746667664357
 33
0.0
  0
SOLID
  5
288
100
AcDbEntity
  8
画層0
100
AcDbTrace
 10
120.992114701314
 20
99.8746667664357
 30
0.0
 11
119.007885298686
 21
99.8746667664357
 31
0.0
 12
119.031416838871
 22
99.7513101128351
 32
0.0
 13
119.031416838871
 23
99.7513101128351
 33
0.0
  0
SOLID
  5
289
100
AcDbEntity
  8
画層0
100
AcDbTrace
 10
120.992114701314
 20
99.8746667664357
 30
0.0
 11
119.031416838871
 21
99.7513101128351
 31
0.0
 12
119.070223514112
 22
99.6318754473153
 32
0.0
 13
119.070223514112
 23
99.6318754473153
 33
0.0
  0
SOLID
  5
28A
100
AcDbEntity
  8
画層0
100
AcDbTrace
 10
120.992114701314
 20
99.8746667664357
 30
0.0
 11
119.070223514112
 21
99.6318754473153
 31
0.0
 12
119.123693319956
 22
99.5182463258983
 32
0.0
 13
119.123693319956
 23
99.5182463258983
 33
0.0
  0
SOLID
  5
28B
100
AcDbEntity
  8
画層0
100
AcDbTrace
 10
120.992114701314
 20
99.8746667664357
 30
0.0
 11
119.123693319956
 21
99.5182463258983
 31
0.0
 12
119.190983005625
 22
99.4122147477075
 32
0.0
 13
119.190983005625
 23
99.4122147477075
 33
0.0
  0
SOLID
  5
28C
100
AcDbEntity
  8
画層0
100
AcDbTrace
 10
120.992114701314
 20
99.8746667664357
 30
0.0
 11
119.190983005625
 21
99.4122147477075
 31
0.0
 12
119.271031372579
 22
99.3154528940713
 32
0.0
 13
119.271031372579
 23
99.3154528940713
 33
0.0
  0
SOLID
  5
28D
100
AcDbEntity
  8
画層0
100
AcDbTrace
 10
120.992114701314
 20
99.8746667664357
 30
0.0
 11
119.271031372579
 21
99.3154528940713
 31
0.0
 12
119.362576010251
 22
99.2294867572242
 32
0.0
 13
119.362576010251
 23
99.2294867572242
 33
0.0
  0
SOLID
  5
28E
100
AcDbEntity
  8
画層0
100
AcDbTrace
 10
120.992114701314
 20
99.8746667664357
 30
0.0
 11
119.362576010251
 21
99.2294867572242
 31
0.0
 12
119.464173205021
 22
99.155672074498
 32
0.0
 13
119.464173205021
 23
99.155672074498
 33
0.0
  0
SOLID
  5
28F
100
AcDbEntity
  8
画層0
100
AcDbTrace
 10
120.992114701314
 20
99.8746667664357
 30
0.0
 11
119.464173205021
 21
99.155672074498
 31
0.0
 12
119.574220708435
 22
99.095172947534
 32
0.0
 13
119.574220708435
 23
99.095172947534
 33
0.0
  0
SOLID
  5
290
100
AcDbEntity
  8
画層0
100
AcDbTrace
 10
120.992114701314
 20
99.8746667664357
 30
0.0
 11
119.574220708435
 21
99.095172947534
 31
0.0
 12
119.690983005625
 22
99.0489434837048
 32
0.0
 13
119.690983005625
 23
99.0489434837048
 33
0.0
  0
SOLID
  5
291
100
AcDbEntity
  8
画層0
100
AcDbTrace
 10
120.992114701314
 20
99.8746667664357
 30
0.0
 11
119.690983005625
 21
99.0489434837048
 31
0.0
 12
119.812618685414
 22
99.0177127492713
 32
0.0
 13
119.812618685414
 23
99.0177127492713
 33
0.0
  0
SOLID
  5
292
100
AcDbEntity
  8
画層0
100
AcDbTrace
 10
120.992114701314
 20
99.8746667664357
 30
0.0
 11
119.812618685414
 21
99.0177127492713
 31
0.0
 12
119.937209480471
 22
99.0019732715717
 32
0.0
 13
119.937209480471
 23
99.0019732715717
 33
0.0
  0
SOLID
  5
293
100
AcDbEntity
  8
画層0
100
AcDbTrace
 10
120.992114701314
 20
99.8746667664357
 30
0.0
 11
119.937209480471
 21
99.0019732715717
 31
0.0
 12
120.062790519529
 22
99.0019732715717
 32
0.0
 13
120.062790519529
 23
99.0019732715717
 33
0.0
  0
SOLID
  5
294
100
AcDbEntity
  8
画層0
100
AcDbTrace
 10
120.992114701314
 20
99.8746667664357
 30
0.0
 11
120.062790519529
 21
99.0019732715717
 31
0.0
 12
120.187381314586
 22
99.0177127492713
 32
0.0
 13
120.187381314586
 23
99.0177127492713
 33
0.0
  0
SOLID
  5
295
100
AcDbEntity
  8
画層0
100
AcDbTrace
 10
120.992114701314
 20
99.8746667664357
 30
0.0
 11
120.187381314586
 21
99.0177127492713
 31
0.0
 12
120.309016994375
 22
99.0489434837048
 32
0.0
 13
120.309016994375
 23
99.0489434837048
 33
0.0
  0
SOLID
  5
296
100
AcDbEntity
  8
画層0
100
AcDbTrace
 10
120.992114701314
 20
99.8746667664357
 30
0.0
 11
120.309016994375
 21
99.0489434837048
 31
0.0
 12
120.425779291565
 22
99.095172947534
 32
0.0
 13
120.425779291565
 23
99.095172947534
 33
0.0
  0
SOLID
  5
297
100
AcDbEntity
  8
画層0
100
AcDbTrace
 10
120.992114701314
 20
99.8746667664357
 30
0.0
 11
120.425779291565
 21
99.095172947534
 31
0.0
 12
120.535826794979
 22
99.155672074498
 32
0.0
 13
120.535826794979
 23
99.155672074498
 33
0.0
  0
SOLID
  5
298
100
AcDbEntity
  8
画層0
100
AcDbTrace
 10
120.992114701314
 20
99.8746667664357
 30
0.0
 11
120.535826794979
 21
99.155672074498
 31
0.0
 12
120.637423989749
 22
99.2294867572242
 32
0.0
 13
120.637423989749
 23
99.2294867572242
 33
0.0
  0
SOLID
  5
299
100
AcDbEntity
  8
画層0
100
AcDbTrace
 10
120.992114701314
 20
99.8746667664357
 30
0.0
 11
120.637423989749
 21
99.2294867572242
 31
0.0
 12
120.728968627421
 22
99.3154528940713
 32
0.0
 13
120.728968627421
 23
99.3154528940713
 33
0.0
  0
SOLID
  5
29A
100
AcDbEntity
  8
画層0
100
AcDbTrace
 10
120.992114701314
 20
99.8746667664357
 30
0.0
 11
120.728968627421
 21
99.3154528940713
 31
0.0
 12
120.809016994375
 22
99.4122147477075
 32
0.0
 13
120.809016994375
 23
99.4122147477075
 33
0.0
  0
SOLID
  5
29B
100
AcDbEntity
  8
画層0
100
AcDbTrace
 10
120.992114701314
 20
99.8746667664357
 30
0.0
 11
120.809016994375
 21
99.4122147477075
 31
0.0
 12
120.876306680044
 22
99.5182463258983
 32
0.0
 13
120.876306680044
 23
99.5182463258983
 33
0.0
  0
SOLID
  5
29C
100
AcDbEntity
  8
画層0
100
AcDbTrace
 10
120.992114701314
 20
99.8746667664357
 30
0.0
 11
120.876306680044
 21
99.5182463258983
 31
0.0
 12
120.929776485888
 22
99.6318754473153
 32
0.0
 13
120.929776485888
 23
99.6318754473153
 33
0.0
  0
SOLID
  5
29D
100
AcDbEntity
  8
画層0
100
AcDbTrace
 10
120.992114701314
 20
99.8746667664357
 30
0.0
 11
120.929776485888
 21
99.6318754473153
 31
0.0
 12
120.968583161129
 22
99.7513101128352
 32
0.0
 13
120.968583161129
 23
99.7513101128352
 33
0.0
  0
CIRCLE
  5
29E
100
AcDbEntity
  8
画層0
100
AcDbCircle
  6
CONTINUOUS
 10
70
 20
60
 40
1
  0
CIRCLE
  5
29F
100
AcDbEntity
  8
画層0
100
AcDbCircle
  6
CONTINUOUS
 10
190
 20
130
 40
1
  0
SOLID
  5
2A0
100
AcDbEntity
  8
画層0
100
AcDbTrace
 10
190.992114701314
 20
129.874666766436
 30
0.0
 11
191
 21
130
 31
0.0
 12
190.992114701314
 22
130.125333233564
 32
0.0
 13
190.992114701314
 23
130.125333233564
 33
0.0
  0
SOLID
  5
2A1
100
AcDbEntity
  8
画層0
100
AcDbTrace
 10
190.992114701314
 20
129.874666766436
 30
0.0
 11
190.992114701314
 21
130.125333233564
 31
0.0
 12
190.968583161129
 22
130.248689887165
 32
0.0
 13
190.968583161129
 23
130.248689887165
 33
0.0
  0
SOLID
  5
2A2
100
AcDbEntity
  8
画層0
100
AcDbTrace
 10
190.992114701314
 20
129.874666766436
 30
0.0
 11
190.968583161129
 21
130.248689887165
 31
0.0
 12
190.929776485888
 22
130.368124552685
 32
0.0
 13
190.929776485888
 23
130.368124552685
 33
0.0
  0
SOLID
  5
2A3
100
AcDbEntity
  8
画層0
100
AcDbTrace
 10
190.992114701314
 20
129.874666766436
 30
0.0
 11
190.929776485888
 21
130.368124552685
 31
0.0
 12
190.876306680044
 22
130.481753674102
 32
0.0
 13
190.876306680044
 23
130.481753674102
 33
0.0
  0
SOLID
  5
2A4
100
AcDbEntity
  8
画層0
100
AcDbTrace
 10
190.992114701314
 20
129.874666766436
 30
0.0
 11
190.876306680044
 21
130.481753674102
 31
0.0
 12
190.809016994375
 22
130.587785252292
 32
0.0
 13
190.809016994375
 23
130.587785252292
 33
0.0
  0
SOLID
  5
2A5
100
AcDbEntity
  8
画層0
100
AcDbTrace
 10
190.992114701314
 20
129.874666766436
 30
0.0
 11
190.809016994375
 21
130.587785252292
 31
0.0
 12
190.728968627421
 22
130.684547105929
 32
0.0
 13
190.728968627421
 23
130.684547105929
 33
0.0
  0
SOLID
  5
2A6
100
AcDbEntity
  8
画層0
100
AcDbTrace
 10
190.992114701314
 20
129.874666766436
 30
0.0
 11
190.728968627421
 21
130.684547105929
 31
0.0
 12
190.637423989749
 22
130.770513242776
 32
0.0
 13
190.637423989749
 23
130.770513242776
 33
0.0
  0
SOLID
  5
2A7
100
AcDbEntity
  8
画層0
100
AcDbTrace
 10
190.992114701314
 20
129.874666766436
 30
0.0
 11
190.637423989749
 21
130.770513242776
 31
0.0
 12
190.535826794979
 22
130.844327925502
 32
0.0
 13
190.535826794979
 23
130.844327925502
 33
0.0
  0
SOLID
  5
2A8
100
AcDbEntity
  8
画層0
100
AcDbTrace
 10
190.992114701314
 20
129.874666766436
 30
0.0
 11
190.535826794979
 21
130.844327925502
 31
0.0
 12
190.425779291565
 22
130.904827052466
 32
0.0
 13
190.425779291565
 23
130.904827052466
 33
0.0
  0
SOLID
  5
2A9
100
AcDbEntity
  8
画層0
100
AcDbTrace
 10
190.992114701314
 20
129.874666766436
 30
0.0
 11
190.425779291565
 21
130.904827052466
 31
0.0
 12
190.309016994375
 22
130.951056516295
 32
0.0
 13
190.309016994375
 23
130.951056516295
 33
0.0
  0
SOLID
  5
2AA
100
AcDbEntity
  8
画層0
100
AcDbTrace
 10
190.992114701314
 20
129.874666766436
 30
0.0
 11
190.309016994375
 21
130.951056516295
 31
0.0
 12
190.187381314586
 22
130.982287250729
 32
0.0
 13
190.187381314586
 23
130.982287250729
 33
0.0
  0
SOLID
  5
2AB
100
AcDbEntity
  8
画層0
100
AcDbTrace
 10
190.992114701314
 20
129.874666766436
 30
0.0
 11
190.187381314586
 21
130.982287250729
 31
0.0
 12
190.062790519529
 22
130.998026728428
 32
0.0
 13
190.062790519529
 23
130.998026728428
 33
0.0
  0
SOLID
  5
2AC
100
AcDbEntity
  8
画層0
100
AcDbTrace
 10
190.992114701314
 20
129.874666766436
 30
0.0
 11
190.062790519529
 21
130.998026728428
 31
0.0
 12
189.937209480471
 22
130.998026728428
 32
0.0
 13
189.937209480471
 23
130.998026728428
 33
0.0
  0
SOLID
  5
2AD
100
AcDbEntity
  8
画層0
100
AcDbTrace
 10
190.992114701314
 20
129.874666766436
 30
0.0
 11
189.937209480471
 21
130.998026728428
 31
0.0
 12
189.812618685414
 22
130.982287250729
 32
0.0
 13
189.812618685414
 23
130.982287250729
 33
0.0
  0
SOLID
  5
2AE
100
AcDbEntity
  8
画層0
100
AcDbTrace
 10
190.992114701314
 20
129.874666766436
 30
0.0
 11
189.812618685414
 21
130.982287250729
 31
0.0
 12
189.690983005625
 22
130.951056516295
 32
0.0
 13
189.690983005625
 23
130.951056516295
 33
0.0
  0
SOLID
  5
2AF
100
AcDbEntity
  8
画層0
100
AcDbTrace
 10
190.992114701314
 20
129.874666766436
 30
0.0
 11
189.690983005625
 21
130.951056516295
 31
0.0
 12
189.574220708435
 22
130.904827052466
 32
0.0
 13
189.574220708435
 23
130.904827052466
 33
0.0
  0
SOLID
  5
2B0
100
AcDbEntity
  8
画層0
100
AcDbTrace
 10
190.992114701314
 20
129.874666766436
 30
0.0
 11
189.574220708435
 21
130.904827052466
 31
0.0
 12
189.464173205021
 22
130.844327925502
 32
0.0
 13
189.464173205021
 23
130.844327925502
 33
0.0
  0
SOLID
  5
2B1
100
AcDbEntity
  8
画層0
100
AcDbTrace
 10
190.992114701314
 20
129.874666766436
 30
0.0
 11
189.464173205021
 21
130.844327925502
 31
0.0
 12
189.362576010251
 22
130.770513242776
 32
0.0
 13
189.362576010251
 23
130.770513242776
 33
0.0
  0
SOLID
  5
2B2
100
AcDbEntity
  8
画層0
100
AcDbTrace
 10
190.992114701314
 20
129.874666766436
 30
0.0
 11
189.362576010251
 21
130.770513242776
 31
0.0
 12
189.271031372579
 22
130.684547105929
 32
0.0
 13
189.271031372579
 23
130.684547105929
 33
0.0
  0
SOLID
  5
2B3
100
AcDbEntity
  8
画層0
100
AcDbTrace
 10
190.992114701314
 20
129.874666766436
 30
0.0
 11
189.271031372579
 21
130.684547105929
 31
0.0
 12
189.190983005625
 22
130.587785252292
 32
0.0
 13
189.190983005625
 23
130.587785252292
 33
0.0
  0
SOLID
  5
2B4
100
AcDbEntity
  8
画層0
100
AcDbTrace
 10
190.992114701314
 20
129.874666766436
 30
0.0
 11
189.190983005625
 21
130.587785252292
 31
0.0
 12
189.123693319956
 22
130.481753674102
 32
0.0
 13
189.123693319956
 23
130.481753674102
 33
0.0
  0
SOLID
  5
2B5
100
AcDbEntity
  8
画層0
100
AcDbTrace
 10
190.992114701314
 20
129.874666766436
 30
0.0
 11
189.123693319956
 21
130.481753674102
 31
0.0
 12
189.070223514112
 22
130.368124552685
 32
0.0
 13
189.070223514112
 23
130.368124552685
 33
0.0
  0
SOLID
  5
2B6
100
AcDbEntity
  8
画層0
100
AcDbTrace
 10
190.992114701314
 20
129.874666766436
 30
0.0
 11
189.070223514112
 21
130.368124552685
 31
0.0
 12
189.031416838871
 22
130.248689887165
 32
0.0
 13
189.031416838871
 23
130.248689887165
 33
0.0
  0
SOLID
  5
2B7
100
AcDbEntity
  8
画層0
100
AcDbTrace
 10
190.992114701314
 20
129.874666766436
 30
0.0
 11
189.031416838871
 21
130.248689887165
 31
0.0
 12
189.007885298686
 22
130.125333233564
 32
0.0
 13
189.007885298686
 23
130.125333233564
 33
0.0
  0
SOLID
  5
2B8
100
AcDbEntity
  8
画層0
100
AcDbTrace
 10
190.992114701314
 20
129.874666766436
 30
0.0
 11
189.007885298686
 21
130.125333233564
 31
0.0
 12
189
 22
130
 32
0.0
 13
189
 23
130
 33
0.0
  0
SOLID
  5
2B9
100
AcDbEntity
  8
画層0
100
AcDbTrace
 10
190.992114701314
 20
129.874666766436
 30
0.0
 11
189
 21
130
 31
0.0
 12
189.007885298686
 22
129.874666766436
 32
0.0
 13
189.007885298686
 23
129.874666766436
 33
0.0
  0
SOLID
  5
2BA
100
AcDbEntity
  8
画層0
100
AcDbTrace
 10
190.992114701314
 20
129.874666766436
 30
0.0
 11
189.007885298686
 21
129.874666766436
 31
0.0
 12
189.031416838871
 22
129.751310112835
 32
0.0
 13
189.031416838871
 23
129.751310112835
 33
0.0
  0
SOLID
  5
2BB
100
AcDbEntity
  8
画層0
100
AcDbTrace
 10
190.992114701314
 20
129.874666766436
 30
0.0
 11
189.031416838871
 21
129.751310112835
 31
0.0
 12
189.070223514112
 22
129.631875447315
 32
0.0
 13
189.070223514112
 23
129.631875447315
 33
0.0
  0
SOLID
  5
2BC
100
AcDbEntity
  8
画層0
100
AcDbTrace
 10
190.992114701314
 20
129.874666766436
 30
0.0
 11
189.070223514112
 21
129.631875447315
 31
0.0
 12
189.123693319956
 22
129.518246325898
 32
0.0
 13
189.123693319956
 23
129.518246325898
 33
0.0
  0
SOLID
  5
2BD
100
AcDbEntity
  8
画層0
100
AcDbTrace
 10
190.992114701314
 20
129.874666766436
 30
0.0
 11
189.123693319956
 21
129.518246325898
 31
0.0
 12
189.190983005625
 22
129.412214747708
 32
0.0
 13
189.190983005625
 23
129.412214747708
 33
0.0
  0
SOLID
  5
2BE
100
AcDbEntity
  8
画層0
100
AcDbTrace
 10
190.992114701314
 20
129.874666766436
 30
0.0
 11
189.190983005625
 21
129.412214747708
 31
0.0
 12
189.271031372579
 22
129.315452894071
 32
0.0
 13
189.271031372579
 23
129.315452894071
 33
0.0
  0
SOLID
  5
2BF
100
AcDbEntity
  8
画層0
100
AcDbTrace
 10
190.992114701314
 20
129.874666766436
 30
0.0
 11
189.271031372579
 21
129.315452894071
 31
0.0
 12
189.362576010251
 22
129.229486757224
 32
0.0
 13
189.362576010251
 23
129.229486757224
 33
0.0
  0
SOLID
  5
2C0
100
AcDbEntity
  8
画層0
100
AcDbTrace
 10
190.992114701314
 20
129.874666766436
 30
0.0
 11
189.362576010251
 21
129.229486757224
 31
0.0
 12
189.464173205021
 22
129.155672074498
 32
0.0
 13
189.464173205021
 23
129.155672074498
 33
0.0
  0
SOLID
  5
2C1
100
AcDbEntity
  8
画層0
100
AcDbTrace
 10
190.992114701314
 20
129.874666766436
 30
0.0
 11
189.464173205021
 21
129.155672074498
 31
0.0
 12
189.574220708435
 22
129.095172947534
 32
0.0
 13
189.574220708435
 23
129.095172947534
 33
0.0
  0
SOLID
  5
2C2
100
AcDbEntity
  8
画層0
100
AcDbTrace
 10
190.992114701314
 20
129.874666766436
 30
0.0
 11
189.574220708435
 21
129.095172947534
 31
0.0
 12
189.690983005625
 22
129.048943483705
 32
0.0
 13
189.690983005625
 23
129.048943483705
 33
0.0
  0
SOLID
  5
2C3
100
AcDbEntity
  8
画層0
100
AcDbTrace
 10
190.992114701314
 20
129.874666766436
 30
0.0
 11
189.690983005625
 21
129.048943483705
 31
0.0
 12
189.812618685414
 22
129.017712749271
 32
0.0
 13
189.812618685414
 23
129.017712749271
 33
0.0
  0
SOLID
  5
2C4
100
AcDbEntity
  8
画層0
100
AcDbTrace
 10
190.992114701314
 20
129.874666766436
 30
0.0
 11
189.812618685414
 21
129.017712749271
 31
0.0
 12
189.937209480471
 22
129.001973271572
 32
0.0
 13
189.937209480471
 23
129.001973271572
 33
0.0
  0
SOLID
  5
2C5
100
AcDbEntity
  8
画層0
100
AcDbTrace
 10
190.992114701314
 20
129.874666766436
 30
0.0
 11
189.937209480471
 21
129.001973271572
 31
0.0
 12
190.062790519529
 22
129.001973271572
 32
0.0
 13
190.062790519529
 23
129.001973271572
 33
0.0
  0
SOLID
  5
2C6
100
AcDbEntity
  8
画層0
100
AcDbTrace
 10
190.992114701314
 20
129.874666766436
 30
0.0
 11
190.062790519529
 21
129.001973271572
 31
0.0
 12
190.187381314586
 22
129.017712749271
 32
0.0
 13
190.187381314586
 23
129.017712749271
 33
0.0
  0
SOLID
  5
2C7
100
AcDbEntity
  8
画層0
100
AcDbTrace
 10
190.992114701314
 20
129.874666766436
 30
0.0
 11
190.187381314586
 21
129.017712749271
 31
0.0
 12
190.309016994375
 22
129.048943483705
 32
0.0
 13
190.309016994375
 23
129.048943483705
 33
0.0
  0
SOLID
  5
2C8
100
AcDbEntity
  8
画層0
100
AcDbTrace
 10
190.992114701314
 20
129.874666766436
 30
0.0
 11
190.309016994375
 21
129.048943483705
 31
0.0
 12
190.425779291565
 22
129.095172947534
 32
0.0
 13
190.425779291565
 23
129.095172947534
 33
0.0
  0
SOLID
  5
2C9
100
AcDbEntity
  8
画層0
100
AcDbTrace
 10
190.992114701314
 20
129.874666766436
 30
0.0
 11
190.425779291565
 21
129.095172947534
 31
0.0
 12
190.535826794979
 22
129.155672074498
 32
0.0
 13
190.535826794979
 23
129.155672074498
 33
0.0
  0
SOLID
  5
2CA
100
AcDbEntity
  8
画層0
100
AcDbTrace
 10
190.992114701314
 20
129.874666766436
 30
0.0
 11
190.535826794979
 21
129.155672074498
 31
0.0
 12
190.637423989749
 22
129.229486757224
 32
0.0
 13
190.637423989749
 23
129.229486757224
 33
0.0
  0
SOLID
  5
2CB
100
AcDbEntity
  8
画層0
100
AcDbTrace
 10
190.992114701314
 20
129.874666766436
 30
0.0
 11
190.637423989749
 21
129.229486757224
 31
0.0
 12
190.728968627421
 22
129.315452894071
 32
0.0
 13
190.728968627421
 23
129.315452894071
 33
0.0
  0
SOLID
  5
2CC
100
AcDbEntity
  8
画層0
100
AcDbTrace
 10
190.992114701314
 20
129.874666766436
 30
0.0
 11
190.728968627421
 21
129.315452894071
 31
0.0
 12
190.809016994375
 22
129.412214747708
 32
0.0
 13
190.809016994375
 23
129.412214747708
 33
0.0
  0
SOLID
  5
2CD
100
AcDbEntity
  8
画層0
100
AcDbTrace
 10
190.992114701314
 20
129.874666766436
 30
0.0
 11
190.809016994375
 21
129.412214747708
 31
0.0
 12
190.876306680044
 22
129.518246325898
 32
0.0
 13
190.876306680044
 23
129.518246325898
 33
0.0
  0
SOLID
  5
2CE
100
AcDbEntity
  8
画層0
100
AcDbTrace
 10
190.992114701314
 20
129.874666766436
 30
0.0
 11
190.876306680044
 21
129.518246325898
 31
0.0
 12
190.929776485888
 22
129.631875447315
 32
0.0
 13
190.929776485888
 23
129.631875447315
 33
0.0
  0
SOLID
  5
2CF
100
AcDbEntity
  8
画層0
100
AcDbTrace
 10
190.992114701314
 20
129.874666766436
 30
0.0
 11
190.929776485888
 21
129.631875447315
 31
0.0
 12
190.968583161129
 22
129.751310112835
 32
0.0
 13
190.968583161129
 23
129.751310112835
 33
0.0
  0
TEXT
  5
2D0
100
AcDbEntity
  8
画層0
100
AcDbText
  6
CONTINUOUS
 10
200
 20
16
 40
4
  1
http://www.k2.dion.ne.jp/~yht/rss/rss.xml
  7
Font_0
 11
200
 21
20
100
AcDbText
 73
3
  0
ENDSEC
  0
SECTION
  2
OBJECTS
  0
DICTIONARY
  5
2D1
100
AcDbDictionary
  3
ACAD_GROUP
350
2D2
  3
ACAD_MLINESTYLE
350
2D3
  0
DICTIONARY
  5
2D2
102
{ACAD_REACTORS
330
2D1
102
}
100
AcDbDictionary
  0
DICTIONARY
  5
2D3
102
{ACAD_REACTORS
330
2D1
102
}
100
AcDbDictionary
  3
STANDARD
350
2D4
  0
MLINESTYLE
  5
2D4
102
{ACAD_REACTORS
330
2D3
102
}
100
AcDbMlineStyle
  2
Standard
 70
     0
  3

 62
     0
 51
90.0
 52
90.0
 71
     2
 49
0.5
 62
   256
  6
ByLayer
 49
-0.5
 62
   256
  6
ByLayer
  0
ENDSEC
  0
EOF
