999
Outputted By AR_CAD Ver.1.5.4a
  0
SECTION
  2
HEADER
  9
$ACADVER
  1
AC1014
  9
$DWGCODEPAGE
  3
ANSI_932
  9
$EXTMIN
 10
0
 20
0
  9
$EXTMAX
 10
297
 20
210
  9
$INSBASE
 10
0.0
 20
0.0
 30
0.0
  9
$HANDLING
 70
     1
  9
$HANDSEED
  5
2B6
  9
$LTSCALE
 40
1
  0
ENDSEC
  0
SECTION
  2
TABLES
  0
TABLE
  2
VPORT
  5
1
100
AcDbSymbolTable
 70
     1
  0
VPORT
  5
30
100
AcDbSymbolTableRecord
100
AcDbViewportTableRecord
  2
*ACTIVE
 70
     0
 10
0.0
 20
0.0
 11
1.0
 21
1.0
 12
210.0
 22
148.5
 13
0.0
 23
0.0
 14
10.0
 24
10.0
 15
10.0
 25
10.0
 16
0.0
 26
0.0
 36
1.0
 17
0.0
 27
0.0
 37
0.0
 40
302.94
 41
1.333333
 42
50.0
 43
0.0
 44
0.0
 50
0.0
 51
0.0
 71
     0
 72
   100
 73
     1
 74
     1
 75
     0
 76
     0
 77
     0
 78
     0
  0
ENDTAB
  0
TABLE
  2
LTYPE
  5
2
100
AcDbSymbolTable
 70
     7
  0
LTYPE
  5
31
100
AcDbSymbolTableRecord
100
AcDbLinetypeTableRecord
  2
BYBLOCK
 70
    64
 3

 72
    65
 73
    0
 40
    0
  0
LTYPE
  5
32
100
AcDbSymbolTableRecord
100
AcDbLinetypeTableRecord
  2
BYLAYER
 70
    64
 3

 72
    65
 73
    0
 40
    0
  0
LTYPE
  5
33
100
AcDbSymbolTableRecord
100
AcDbLinetypeTableRecord
  2
CONTINUOUS
 70
    64
 3
CONTINUOUS
 72
    65
 73
    0
 40
    0
  0
LTYPE
  5
34
100
AcDbSymbolTableRecord
100
AcDbLinetypeTableRecord
  2
DASHED
 70
    64
 3

 72
    65
 73
    2
 40
    3.5
 49
    2.917
 74
    0
 49
    -0.583
 74
    0
  0
LTYPE
  5
35
100
AcDbSymbolTableRecord
100
AcDbLinetypeTableRecord
  2
DOT
 70
    64
 3

 72
    65
 73
    2
 40
    0.5
 49
    0.25
 74
    0
 49
    -0.25
 74
    0
  0
LTYPE
  5
36
100
AcDbSymbolTableRecord
100
AcDbLinetypeTableRecord
  2
DASHDOT
 70
    64
 3

 72
    65
 73
    4
 40
    3.5
 49
    1.84147386461011
 74
    0
 49
    -0.552842045129963
 74
    0
 49
    0.552842045129963
 74
    0
 49
    -0.552842045129963
 74
    0
  0
LTYPE
  5
37
100
AcDbSymbolTableRecord
100
AcDbLinetypeTableRecord
  2
DIVIDE
 70
    64
 3

 72
    65
 73
    6
 40
    3.5
 49
    1.4
 74
    0
 49
    -0.42
 74
    0
 49
    0.42
 74
    0
 49
    -0.42
 74
    0
 49
    0.42
 74
    0
 49
    -0.42
 74
    0
  0
LTYPE
  5
38
100
AcDbSymbolTableRecord
100
AcDbLinetypeTableRecord
  2
HIDDEN
 70
    64
 3

 72
    65
 73
    2
 40
    4
 49
    2
 74
    0
 49
    -2
 74
    0
  0
ENDTAB
  0
TABLE
  2
LAYER
  5
3
100
AcDbSymbolTable
 70
   257
  0
LAYER
  5
39
100
AcDbSymbolTableRecord
100
AcDbLayerTableRecord
  2
画層0
 70
    0
 62
7
  6
CONTINUOUS
  0
LAYER
  5
3A
100
AcDbSymbolTableRecord
100
AcDbLayerTableRecord
  2
画層1
 70
    0
 62
3
  6
CONTINUOUS
  0
LAYER
  5
3B
100
AcDbSymbolTableRecord
100
AcDbLayerTableRecord
  2
画層2
 70
    0
 62
9
  6
CONTINUOUS
  0
LAYER
  5
3C
100
AcDbSymbolTableRecord
100
AcDbLayerTableRecord
  2
画層3
 70
    0
 62
7
  6
CONTINUOUS
  0
LAYER
  5
3D
100
AcDbSymbolTableRecord
100
AcDbLayerTableRecord
  2
画層4
 70
    0
 62
6
  6
CONTINUOUS
  0
LAYER
  5
3E
100
AcDbSymbolTableRecord
100
AcDbLayerTableRecord
  2
画層5
 70
    0
 62
1
  6
CONTINUOUS
  0
LAYER
  5
3F
100
AcDbSymbolTableRecord
100
AcDbLayerTableRecord
  2
画層6
 70
    0
 62
7
  6
CONTINUOUS
  0
LAYER
  5
40
100
AcDbSymbolTableRecord
100
AcDbLayerTableRecord
  2
画層7
 70
    0
 62
51
  6
CONTINUOUS
  0
LAYER
  5
41
100
AcDbSymbolTableRecord
100
AcDbLayerTableRecord
  2
画層8
 70
    0
 62
61
  6
CONTINUOUS
  0
LAYER
  5
42
100
AcDbSymbolTableRecord
100
AcDbLayerTableRecord
  2
画層9
 70
    0
 62
111
  6
CONTINUOUS
  0
LAYER
  5
43
100
AcDbSymbolTableRecord
100
AcDbLayerTableRecord
  2
画層10
 70
    0
 62
91
  6
CONTINUOUS
  0
LAYER
  5
44
100
AcDbSymbolTableRecord
100
AcDbLayerTableRecord
  2
画層11
 70
    0
 62
131
  6
CONTINUOUS
  0
LAYER
  5
45
100
AcDbSymbolTableRecord
100
AcDbLayerTableRecord
  2
画層12
 70
    0
 62
161
  6
CONTINUOUS
  0
LAYER
  5
46
100
AcDbSymbolTableRecord
100
AcDbLayerTableRecord
  2
画層13
 70
    0
 62
5
  6
CONTINUOUS
  0
LAYER
  5
47
100
AcDbSymbolTableRecord
100
AcDbLayerTableRecord
  2
画層14
 70
    0
 62
7
  6
CONTINUOUS
  0
LAYER
  5
48
100
AcDbSymbolTableRecord
100
AcDbLayerTableRecord
  2
画層15
 70
    0
 62
11
  6
CONTINUOUS
  0
LAYER
  5
49
100
AcDbSymbolTableRecord
100
AcDbLayerTableRecord
  2
画層16
 70
    0
 62
7
  6
CONTINUOUS
  0
LAYER
  5
4A
100
AcDbSymbolTableRecord
100
AcDbLayerTableRecord
  2
画層17
 70
    0
 62
70
  6
CONTINUOUS
  0
LAYER
  5
4B
100
AcDbSymbolTableRecord
100
AcDbLayerTableRecord
  2
画層18
 70
    0
 62
211
  6
CONTINUOUS
  0
LAYER
  5
4C
100
AcDbSymbolTableRecord
100
AcDbLayerTableRecord
  2
画層19
 70
    0
 62
137
  6
CONTINUOUS
  0
LAYER
  5
4D
100
AcDbSymbolTableRecord
100
AcDbLayerTableRecord
  2
画層20
 70
    0
 62
4
  6
CONTINUOUS
  0
LAYER
  5
4E
100
AcDbSymbolTableRecord
100
AcDbLayerTableRecord
  2
画層21
 70
    0
 62
131
  6
CONTINUOUS
  0
LAYER
  5
4F
100
AcDbSymbolTableRecord
100
AcDbLayerTableRecord
  2
画層22
 70
    0
 62
4
  6
CONTINUOUS
  0
LAYER
  5
50
100
AcDbSymbolTableRecord
100
AcDbLayerTableRecord
  2
画層23
 70
    0
 62
4
  6
CONTINUOUS
  0
LAYER
  5
51
100
AcDbSymbolTableRecord
100
AcDbLayerTableRecord
  2
画層24
 70
    0
 62
7
  6
CONTINUOUS
  0
LAYER
  5
52
100
AcDbSymbolTableRecord
100
AcDbLayerTableRecord
  2
画層25
 70
    0
 62
7
  6
CONTINUOUS
  0
LAYER
  5
53
100
AcDbSymbolTableRecord
100
AcDbLayerTableRecord
  2
画層26
 70
    0
 62
7
  6
CONTINUOUS
  0
LAYER
  5
54
100
AcDbSymbolTableRecord
100
AcDbLayerTableRecord
  2
画層27
 70
    0
 62
7
  6
CONTINUOUS
  0
LAYER
  5
55
100
AcDbSymbolTableRecord
100
AcDbLayerTableRecord
  2
画層28
 70
    0
 62
7
  6
CONTINUOUS
  0
LAYER
  5
56
100
AcDbSymbolTableRecord
100
AcDbLayerTableRecord
  2
画層29
 70
    0
 62
7
  6
CONTINUOUS
  0
LAYER
  5
57
100
AcDbSymbolTableRecord
100
AcDbLayerTableRecord
  2
画層30
 70
    0
 62
7
  6
CONTINUOUS
  0
LAYER
  5
58
100
AcDbSymbolTableRecord
100
AcDbLayerTableRecord
  2
画層31
 70
    0
 62
7
  6
CONTINUOUS
  0
LAYER
  5
59
100
AcDbSymbolTableRecord
100
AcDbLayerTableRecord
  2
画層32
 70
    0
 62
7
  6
CONTINUOUS
  0
LAYER
  5
5A
100
AcDbSymbolTableRecord
100
AcDbLayerTableRecord
  2
画層33
 70
    0
 62
7
  6
CONTINUOUS
  0
LAYER
  5
5B
100
AcDbSymbolTableRecord
100
AcDbLayerTableRecord
  2
画層34
 70
    0
 62
7
  6
CONTINUOUS
  0
LAYER
  5
5C
100
AcDbSymbolTableRecord
100
AcDbLayerTableRecord
  2
画層35
 70
    0
 62
7
  6
CONTINUOUS
  0
LAYER
  5
5D
100
AcDbSymbolTableRecord
100
AcDbLayerTableRecord
  2
画層36
 70
    0
 62
7
  6
CONTINUOUS
  0
LAYER
  5
5E
100
AcDbSymbolTableRecord
100
AcDbLayerTableRecord
  2
画層37
 70
    0
 62
7
  6
CONTINUOUS
  0
LAYER
  5
5F
100
AcDbSymbolTableRecord
100
AcDbLayerTableRecord
  2
画層38
 70
    0
 62
7
  6
CONTINUOUS
  0
LAYER
  5
60
100
AcDbSymbolTableRecord
100
AcDbLayerTableRecord
  2
画層39
 70
    0
 62
7
  6
CONTINUOUS
  0
LAYER
  5
61
100
AcDbSymbolTableRecord
100
AcDbLayerTableRecord
  2
画層40
 70
    0
 62
7
  6
CONTINUOUS
  0
LAYER
  5
62
100
AcDbSymbolTableRecord
100
AcDbLayerTableRecord
  2
画層41
 70
    0
 62
7
  6
CONTINUOUS
  0
LAYER
  5
63
100
AcDbSymbolTableRecord
100
AcDbLayerTableRecord
  2
画層42
 70
    0
 62
7
  6
CONTINUOUS
  0
LAYER
  5
64
100
AcDbSymbolTableRecord
100
AcDbLayerTableRecord
  2
画層43
 70
    0
 62
7
  6
CONTINUOUS
  0
LAYER
  5
65
100
AcDbSymbolTableRecord
100
AcDbLayerTableRecord
  2
画層44
 70
    0
 62
7
  6
CONTINUOUS
  0
LAYER
  5
66
100
AcDbSymbolTableRecord
100
AcDbLayerTableRecord
  2
画層45
 70
    0
 62
7
  6
CONTINUOUS
  0
LAYER
  5
67
100
AcDbSymbolTableRecord
100
AcDbLayerTableRecord
  2
画層46
 70
    0
 62
7
  6
CONTINUOUS
  0
LAYER
  5
68
100
AcDbSymbolTableRecord
100
AcDbLayerTableRecord
  2
画層47
 70
    0
 62
7
  6
CONTINUOUS
  0
LAYER
  5
69
100
AcDbSymbolTableRecord
100
AcDbLayerTableRecord
  2
画層48
 70
    0
 62
7
  6
CONTINUOUS
  0
LAYER
  5
6A
100
AcDbSymbolTableRecord
100
AcDbLayerTableRecord
  2
画層49
 70
    0
 62
7
  6
CONTINUOUS
  0
LAYER
  5
6B
100
AcDbSymbolTableRecord
100
AcDbLayerTableRecord
  2
画層50
 70
    0
 62
7
  6
CONTINUOUS
  0
LAYER
  5
6C
100
AcDbSymbolTableRecord
100
AcDbLayerTableRecord
  2
画層51
 70
    0
 62
7
  6
CONTINUOUS
  0
LAYER
  5
6D
100
AcDbSymbolTableRecord
100
AcDbLayerTableRecord
  2
画層52
 70
    0
 62
7
  6
CONTINUOUS
  0
LAYER
  5
6E
100
AcDbSymbolTableRecord
100
AcDbLayerTableRecord
  2
画層53
 70
    0
 62
7
  6
CONTINUOUS
  0
LAYER
  5
6F
100
AcDbSymbolTableRecord
100
AcDbLayerTableRecord
  2
画層54
 70
    0
 62
7
  6
CONTINUOUS
  0
LAYER
  5
70
100
AcDbSymbolTableRecord
100
AcDbLayerTableRecord
  2
画層55
 70
    0
 62
7
  6
CONTINUOUS
  0
LAYER
  5
71
100
AcDbSymbolTableRecord
100
AcDbLayerTableRecord
  2
画層56
 70
    0
 62
7
  6
CONTINUOUS
  0
LAYER
  5
72
100
AcDbSymbolTableRecord
100
AcDbLayerTableRecord
  2
画層57
 70
    0
 62
7
  6
CONTINUOUS
  0
LAYER
  5
73
100
AcDbSymbolTableRecord
100
AcDbLayerTableRecord
  2
画層58
 70
    0
 62
7
  6
CONTINUOUS
  0
LAYER
  5
74
100
AcDbSymbolTableRecord
100
AcDbLayerTableRecord
  2
画層59
 70
    0
 62
7
  6
CONTINUOUS
  0
LAYER
  5
75
100
AcDbSymbolTableRecord
100
AcDbLayerTableRecord
  2
画層60
 70
    0
 62
7
  6
CONTINUOUS
  0
LAYER
  5
76
100
AcDbSymbolTableRecord
100
AcDbLayerTableRecord
  2
画層61
 70
    0
 62
7
  6
CONTINUOUS
  0
LAYER
  5
77
100
AcDbSymbolTableRecord
100
AcDbLayerTableRecord
  2
画層62
 70
    0
 62
7
  6
CONTINUOUS
  0
LAYER
  5
78
100
AcDbSymbolTableRecord
100
AcDbLayerTableRecord
  2
画層63
 70
    0
 62
7
  6
CONTINUOUS
  0
LAYER
  5
79
100
AcDbSymbolTableRecord
100
AcDbLayerTableRecord
  2
画層64
 70
    0
 62
7
  6
CONTINUOUS
  0
LAYER
  5
7A
100
AcDbSymbolTableRecord
100
AcDbLayerTableRecord
  2
画層65
 70
    0
 62
7
  6
CONTINUOUS
  0
LAYER
  5
7B
100
AcDbSymbolTableRecord
100
AcDbLayerTableRecord
  2
画層66
 70
    0
 62
7
  6
CONTINUOUS
  0
LAYER
  5
7C
100
AcDbSymbolTableRecord
100
AcDbLayerTableRecord
  2
画層67
 70
    0
 62
7
  6
CONTINUOUS
  0
LAYER
  5
7D
100
AcDbSymbolTableRecord
100
AcDbLayerTableRecord
  2
画層68
 70
    0
 62
7
  6
CONTINUOUS
  0
LAYER
  5
7E
100
AcDbSymbolTableRecord
100
AcDbLayerTableRecord
  2
画層69
 70
    0
 62
7
  6
CONTINUOUS
  0
LAYER
  5
7F
100
AcDbSymbolTableRecord
100
AcDbLayerTableRecord
  2
画層70
 70
    0
 62
7
  6
CONTINUOUS
  0
LAYER
  5
80
100
AcDbSymbolTableRecord
100
AcDbLayerTableRecord
  2
画層71
 70
    0
 62
7
  6
CONTINUOUS
  0
LAYER
  5
81
100
AcDbSymbolTableRecord
100
AcDbLayerTableRecord
  2
画層72
 70
    0
 62
7
  6
CONTINUOUS
  0
LAYER
  5
82
100
AcDbSymbolTableRecord
100
AcDbLayerTableRecord
  2
画層73
 70
    0
 62
7
  6
CONTINUOUS
  0
LAYER
  5
83
100
AcDbSymbolTableRecord
100
AcDbLayerTableRecord
  2
画層74
 70
    0
 62
7
  6
CONTINUOUS
  0
LAYER
  5
84
100
AcDbSymbolTableRecord
100
AcDbLayerTableRecord
  2
画層75
 70
    0
 62
7
  6
CONTINUOUS
  0
LAYER
  5
85
100
AcDbSymbolTableRecord
100
AcDbLayerTableRecord
  2
画層76
 70
    0
 62
7
  6
CONTINUOUS
  0
LAYER
  5
86
100
AcDbSymbolTableRecord
100
AcDbLayerTableRecord
  2
画層77
 70
    0
 62
7
  6
CONTINUOUS
  0
LAYER
  5
87
100
AcDbSymbolTableRecord
100
AcDbLayerTableRecord
  2
画層78
 70
    0
 62
7
  6
CONTINUOUS
  0
LAYER
  5
88
100
AcDbSymbolTableRecord
100
AcDbLayerTableRecord
  2
画層79
 70
    0
 62
7
  6
CONTINUOUS
  0
LAYER
  5
89
100
AcDbSymbolTableRecord
100
AcDbLayerTableRecord
  2
画層80
 70
    0
 62
7
  6
CONTINUOUS
  0
LAYER
  5
8A
100
AcDbSymbolTableRecord
100
AcDbLayerTableRecord
  2
画層81
 70
    0
 62
7
  6
CONTINUOUS
  0
LAYER
  5
8B
100
AcDbSymbolTableRecord
100
AcDbLayerTableRecord
  2
画層82
 70
    0
 62
7
  6
CONTINUOUS
  0
LAYER
  5
8C
100
AcDbSymbolTableRecord
100
AcDbLayerTableRecord
  2
画層83
 70
    0
 62
7
  6
CONTINUOUS
  0
LAYER
  5
8D
100
AcDbSymbolTableRecord
100
AcDbLayerTableRecord
  2
画層84
 70
    0
 62
7
  6
CONTINUOUS
  0
LAYER
  5
8E
100
AcDbSymbolTableRecord
100
AcDbLayerTableRecord
  2
画層85
 70
    0
 62
7
  6
CONTINUOUS
  0
LAYER
  5
8F
100
AcDbSymbolTableRecord
100
AcDbLayerTableRecord
  2
画層86
 70
    0
 62
7
  6
CONTINUOUS
  0
LAYER
  5
90
100
AcDbSymbolTableRecord
100
AcDbLayerTableRecord
  2
画層87
 70
    0
 62
7
  6
CONTINUOUS
  0
LAYER
  5
91
100
AcDbSymbolTableRecord
100
AcDbLayerTableRecord
  2
画層88
 70
    0
 62
7
  6
CONTINUOUS
  0
LAYER
  5
92
100
AcDbSymbolTableRecord
100
AcDbLayerTableRecord
  2
画層89
 70
    0
 62
7
  6
CONTINUOUS
  0
LAYER
  5
93
100
AcDbSymbolTableRecord
100
AcDbLayerTableRecord
  2
画層90
 70
    0
 62
7
  6
CONTINUOUS
  0
LAYER
  5
94
100
AcDbSymbolTableRecord
100
AcDbLayerTableRecord
  2
画層91
 70
    0
 62
7
  6
CONTINUOUS
  0
LAYER
  5
95
100
AcDbSymbolTableRecord
100
AcDbLayerTableRecord
  2
画層92
 70
    0
 62
7
  6
CONTINUOUS
  0
LAYER
  5
96
100
AcDbSymbolTableRecord
100
AcDbLayerTableRecord
  2
画層93
 70
    0
 62
7
  6
CONTINUOUS
  0
LAYER
  5
97
100
AcDbSymbolTableRecord
100
AcDbLayerTableRecord
  2
画層94
 70
    0
 62
7
  6
CONTINUOUS
  0
LAYER
  5
98
100
AcDbSymbolTableRecord
100
AcDbLayerTableRecord
  2
画層95
 70
    0
 62
7
  6
CONTINUOUS
  0
LAYER
  5
99
100
AcDbSymbolTableRecord
100
AcDbLayerTableRecord
  2
画層96
 70
    0
 62
7
  6
CONTINUOUS
  0
LAYER
  5
9A
100
AcDbSymbolTableRecord
100
AcDbLayerTableRecord
  2
画層97
 70
    0
 62
7
  6
CONTINUOUS
  0
LAYER
  5
9B
100
AcDbSymbolTableRecord
100
AcDbLayerTableRecord
  2
画層98
 70
    0
 62
7
  6
CONTINUOUS
  0
LAYER
  5
9C
100
AcDbSymbolTableRecord
100
AcDbLayerTableRecord
  2
画層99
 70
    0
 62
7
  6
CONTINUOUS
  0
LAYER
  5
9D
100
AcDbSymbolTableRecord
100
AcDbLayerTableRecord
  2
画層100
 70
    0
 62
7
  6
CONTINUOUS
  0
LAYER
  5
9E
100
AcDbSymbolTableRecord
100
AcDbLayerTableRecord
  2
画層101
 70
    0
 62
7
  6
CONTINUOUS
  0
LAYER
  5
9F
100
AcDbSymbolTableRecord
100
AcDbLayerTableRecord
  2
画層102
 70
    0
 62
7
  6
CONTINUOUS
  0
LAYER
  5
A0
100
AcDbSymbolTableRecord
100
AcDbLayerTableRecord
  2
画層103
 70
    0
 62
7
  6
CONTINUOUS
  0
LAYER
  5
A1
100
AcDbSymbolTableRecord
100
AcDbLayerTableRecord
  2
画層104
 70
    0
 62
7
  6
CONTINUOUS
  0
LAYER
  5
A2
100
AcDbSymbolTableRecord
100
AcDbLayerTableRecord
  2
画層105
 70
    0
 62
7
  6
CONTINUOUS
  0
LAYER
  5
A3
100
AcDbSymbolTableRecord
100
AcDbLayerTableRecord
  2
画層106
 70
    0
 62
7
  6
CONTINUOUS
  0
LAYER
  5
A4
100
AcDbSymbolTableRecord
100
AcDbLayerTableRecord
  2
画層107
 70
    0
 62
7
  6
CONTINUOUS
  0
LAYER
  5
A5
100
AcDbSymbolTableRecord
100
AcDbLayerTableRecord
  2
画層108
 70
    0
 62
7
  6
CONTINUOUS
  0
LAYER
  5
A6
100
AcDbSymbolTableRecord
100
AcDbLayerTableRecord
  2
画層109
 70
    0
 62
7
  6
CONTINUOUS
  0
LAYER
  5
A7
100
AcDbSymbolTableRecord
100
AcDbLayerTableRecord
  2
画層110
 70
    0
 62
7
  6
CONTINUOUS
  0
LAYER
  5
A8
100
AcDbSymbolTableRecord
100
AcDbLayerTableRecord
  2
画層111
 70
    0
 62
7
  6
CONTINUOUS
  0
LAYER
  5
A9
100
AcDbSymbolTableRecord
100
AcDbLayerTableRecord
  2
画層112
 70
    0
 62
7
  6
CONTINUOUS
  0
LAYER
  5
AA
100
AcDbSymbolTableRecord
100
AcDbLayerTableRecord
  2
画層113
 70
    0
 62
7
  6
CONTINUOUS
  0
LAYER
  5
AB
100
AcDbSymbolTableRecord
100
AcDbLayerTableRecord
  2
画層114
 70
    0
 62
7
  6
CONTINUOUS
  0
LAYER
  5
AC
100
AcDbSymbolTableRecord
100
AcDbLayerTableRecord
  2
画層115
 70
    0
 62
7
  6
CONTINUOUS
  0
LAYER
  5
AD
100
AcDbSymbolTableRecord
100
AcDbLayerTableRecord
  2
画層116
 70
    0
 62
7
  6
CONTINUOUS
  0
LAYER
  5
AE
100
AcDbSymbolTableRecord
100
AcDbLayerTableRecord
  2
画層117
 70
    0
 62
7
  6
CONTINUOUS
  0
LAYER
  5
AF
100
AcDbSymbolTableRecord
100
AcDbLayerTableRecord
  2
画層118
 70
    0
 62
7
  6
CONTINUOUS
  0
LAYER
  5
B0
100
AcDbSymbolTableRecord
100
AcDbLayerTableRecord
  2
画層119
 70
    0
 62
7
  6
CONTINUOUS
  0
LAYER
  5
B1
100
AcDbSymbolTableRecord
100
AcDbLayerTableRecord
  2
画層120
 70
    0
 62
7
  6
CONTINUOUS
  0
LAYER
  5
B2
100
AcDbSymbolTableRecord
100
AcDbLayerTableRecord
  2
画層121
 70
    0
 62
7
  6
CONTINUOUS
  0
LAYER
  5
B3
100
AcDbSymbolTableRecord
100
AcDbLayerTableRecord
  2
画層122
 70
    0
 62
7
  6
CONTINUOUS
  0
LAYER
  5
B4
100
AcDbSymbolTableRecord
100
AcDbLayerTableRecord
  2
画層123
 70
    0
 62
7
  6
CONTINUOUS
  0
LAYER
  5
B5
100
AcDbSymbolTableRecord
100
AcDbLayerTableRecord
  2
画層124
 70
    0
 62
7
  6
CONTINUOUS
  0
LAYER
  5
B6
100
AcDbSymbolTableRecord
100
AcDbLayerTableRecord
  2
画層125
 70
    0
 62
7
  6
CONTINUOUS
  0
LAYER
  5
B7
100
AcDbSymbolTableRecord
100
AcDbLayerTableRecord
  2
画層126
 70
    0
 62
7
  6
CONTINUOUS
  0
LAYER
  5
B8
100
AcDbSymbolTableRecord
100
AcDbLayerTableRecord
  2
画層127
 70
    0
 62
7
  6
CONTINUOUS
  0
LAYER
  5
B9
100
AcDbSymbolTableRecord
100
AcDbLayerTableRecord
  2
画層128
 70
    0
 62
7
  6
CONTINUOUS
  0
LAYER
  5
BA
100
AcDbSymbolTableRecord
100
AcDbLayerTableRecord
  2
画層129
 70
    0
 62
7
  6
CONTINUOUS
  0
LAYER
  5
BB
100
AcDbSymbolTableRecord
100
AcDbLayerTableRecord
  2
画層130
 70
    0
 62
7
  6
CONTINUOUS
  0
LAYER
  5
BC
100
AcDbSymbolTableRecord
100
AcDbLayerTableRecord
  2
画層131
 70
    0
 62
7
  6
CONTINUOUS
  0
LAYER
  5
BD
100
AcDbSymbolTableRecord
100
AcDbLayerTableRecord
  2
画層132
 70
    0
 62
7
  6
CONTINUOUS
  0
LAYER
  5
BE
100
AcDbSymbolTableRecord
100
AcDbLayerTableRecord
  2
画層133
 70
    0
 62
7
  6
CONTINUOUS
  0
LAYER
  5
BF
100
AcDbSymbolTableRecord
100
AcDbLayerTableRecord
  2
画層134
 70
    0
 62
7
  6
CONTINUOUS
  0
LAYER
  5
C0
100
AcDbSymbolTableRecord
100
AcDbLayerTableRecord
  2
画層135
 70
    0
 62
7
  6
CONTINUOUS
  0
LAYER
  5
C1
100
AcDbSymbolTableRecord
100
AcDbLayerTableRecord
  2
画層136
 70
    0
 62
7
  6
CONTINUOUS
  0
LAYER
  5
C2
100
AcDbSymbolTableRecord
100
AcDbLayerTableRecord
  2
画層137
 70
    0
 62
7
  6
CONTINUOUS
  0
LAYER
  5
C3
100
AcDbSymbolTableRecord
100
AcDbLayerTableRecord
  2
画層138
 70
    0
 62
7
  6
CONTINUOUS
  0
LAYER
  5
C4
100
AcDbSymbolTableRecord
100
AcDbLayerTableRecord
  2
画層139
 70
    0
 62
7
  6
CONTINUOUS
  0
LAYER
  5
C5
100
AcDbSymbolTableRecord
100
AcDbLayerTableRecord
  2
画層140
 70
    0
 62
7
  6
CONTINUOUS
  0
LAYER
  5
C6
100
AcDbSymbolTableRecord
100
AcDbLayerTableRecord
  2
画層141
 70
    0
 62
7
  6
CONTINUOUS
  0
LAYER
  5
C7
100
AcDbSymbolTableRecord
100
AcDbLayerTableRecord
  2
画層142
 70
    0
 62
7
  6
CONTINUOUS
  0
LAYER
  5
C8
100
AcDbSymbolTableRecord
100
AcDbLayerTableRecord
  2
画層143
 70
    0
 62
7
  6
CONTINUOUS
  0
LAYER
  5
C9
100
AcDbSymbolTableRecord
100
AcDbLayerTableRecord
  2
画層144
 70
    0
 62
7
  6
CONTINUOUS
  0
LAYER
  5
CA
100
AcDbSymbolTableRecord
100
AcDbLayerTableRecord
  2
画層145
 70
    0
 62
7
  6
CONTINUOUS
  0
LAYER
  5
CB
100
AcDbSymbolTableRecord
100
AcDbLayerTableRecord
  2
画層146
 70
    0
 62
7
  6
CONTINUOUS
  0
LAYER
  5
CC
100
AcDbSymbolTableRecord
100
AcDbLayerTableRecord
  2
画層147
 70
    0
 62
7
  6
CONTINUOUS
  0
LAYER
  5
CD
100
AcDbSymbolTableRecord
100
AcDbLayerTableRecord
  2
画層148
 70
    0
 62
7
  6
CONTINUOUS
  0
LAYER
  5
CE
100
AcDbSymbolTableRecord
100
AcDbLayerTableRecord
  2
画層149
 70
    0
 62
7
  6
CONTINUOUS
  0
LAYER
  5
CF
100
AcDbSymbolTableRecord
100
AcDbLayerTableRecord
  2
画層150
 70
    0
 62
7
  6
CONTINUOUS
  0
LAYER
  5
D0
100
AcDbSymbolTableRecord
100
AcDbLayerTableRecord
  2
画層151
 70
    0
 62
7
  6
CONTINUOUS
  0
LAYER
  5
D1
100
AcDbSymbolTableRecord
100
AcDbLayerTableRecord
  2
画層152
 70
    0
 62
7
  6
CONTINUOUS
  0
LAYER
  5
D2
100
AcDbSymbolTableRecord
100
AcDbLayerTableRecord
  2
画層153
 70
    0
 62
7
  6
CONTINUOUS
  0
LAYER
  5
D3
100
AcDbSymbolTableRecord
100
AcDbLayerTableRecord
  2
画層154
 70
    0
 62
7
  6
CONTINUOUS
  0
LAYER
  5
D4
100
AcDbSymbolTableRecord
100
AcDbLayerTableRecord
  2
画層155
 70
    0
 62
7
  6
CONTINUOUS
  0
LAYER
  5
D5
100
AcDbSymbolTableRecord
100
AcDbLayerTableRecord
  2
画層156
 70
    0
 62
7
  6
CONTINUOUS
  0
LAYER
  5
D6
100
AcDbSymbolTableRecord
100
AcDbLayerTableRecord
  2
画層157
 70
    0
 62
7
  6
CONTINUOUS
  0
LAYER
  5
D7
100
AcDbSymbolTableRecord
100
AcDbLayerTableRecord
  2
画層158
 70
    0
 62
7
  6
CONTINUOUS
  0
LAYER
  5
D8
100
AcDbSymbolTableRecord
100
AcDbLayerTableRecord
  2
画層159
 70
    0
 62
7
  6
CONTINUOUS
  0
LAYER
  5
D9
100
AcDbSymbolTableRecord
100
AcDbLayerTableRecord
  2
画層160
 70
    0
 62
7
  6
CONTINUOUS
  0
LAYER
  5
DA
100
AcDbSymbolTableRecord
100
AcDbLayerTableRecord
  2
画層161
 70
    0
 62
7
  6
CONTINUOUS
  0
LAYER
  5
DB
100
AcDbSymbolTableRecord
100
AcDbLayerTableRecord
  2
画層162
 70
    0
 62
7
  6
CONTINUOUS
  0
LAYER
  5
DC
100
AcDbSymbolTableRecord
100
AcDbLayerTableRecord
  2
画層163
 70
    0
 62
7
  6
CONTINUOUS
  0
LAYER
  5
DD
100
AcDbSymbolTableRecord
100
AcDbLayerTableRecord
  2
画層164
 70
    0
 62
7
  6
CONTINUOUS
  0
LAYER
  5
DE
100
AcDbSymbolTableRecord
100
AcDbLayerTableRecord
  2
画層165
 70
    0
 62
7
  6
CONTINUOUS
  0
LAYER
  5
DF
100
AcDbSymbolTableRecord
100
AcDbLayerTableRecord
  2
画層166
 70
    0
 62
7
  6
CONTINUOUS
  0
LAYER
  5
E0
100
AcDbSymbolTableRecord
100
AcDbLayerTableRecord
  2
画層167
 70
    0
 62
7
  6
CONTINUOUS
  0
LAYER
  5
E1
100
AcDbSymbolTableRecord
100
AcDbLayerTableRecord
  2
画層168
 70
    0
 62
7
  6
CONTINUOUS
  0
LAYER
  5
E2
100
AcDbSymbolTableRecord
100
AcDbLayerTableRecord
  2
画層169
 70
    0
 62
7
  6
CONTINUOUS
  0
LAYER
  5
E3
100
AcDbSymbolTableRecord
100
AcDbLayerTableRecord
  2
画層170
 70
    0
 62
7
  6
CONTINUOUS
  0
LAYER
  5
E4
100
AcDbSymbolTableRecord
100
AcDbLayerTableRecord
  2
画層171
 70
    0
 62
7
  6
CONTINUOUS
  0
LAYER
  5
E5
100
AcDbSymbolTableRecord
100
AcDbLayerTableRecord
  2
画層172
 70
    0
 62
7
  6
CONTINUOUS
  0
LAYER
  5
E6
100
AcDbSymbolTableRecord
100
AcDbLayerTableRecord
  2
画層173
 70
    0
 62
7
  6
CONTINUOUS
  0
LAYER
  5
E7
100
AcDbSymbolTableRecord
100
AcDbLayerTableRecord
  2
画層174
 70
    0
 62
7
  6
CONTINUOUS
  0
LAYER
  5
E8
100
AcDbSymbolTableRecord
100
AcDbLayerTableRecord
  2
画層175
 70
    0
 62
7
  6
CONTINUOUS
  0
LAYER
  5
E9
100
AcDbSymbolTableRecord
100
AcDbLayerTableRecord
  2
画層176
 70
    0
 62
7
  6
CONTINUOUS
  0
LAYER
  5
EA
100
AcDbSymbolTableRecord
100
AcDbLayerTableRecord
  2
画層177
 70
    0
 62
7
  6
CONTINUOUS
  0
LAYER
  5
EB
100
AcDbSymbolTableRecord
100
AcDbLayerTableRecord
  2
画層178
 70
    0
 62
7
  6
CONTINUOUS
  0
LAYER
  5
EC
100
AcDbSymbolTableRecord
100
AcDbLayerTableRecord
  2
画層179
 70
    0
 62
7
  6
CONTINUOUS
  0
LAYER
  5
ED
100
AcDbSymbolTableRecord
100
AcDbLayerTableRecord
  2
画層180
 70
    0
 62
7
  6
CONTINUOUS
  0
LAYER
  5
EE
100
AcDbSymbolTableRecord
100
AcDbLayerTableRecord
  2
画層181
 70
    0
 62
7
  6
CONTINUOUS
  0
LAYER
  5
EF
100
AcDbSymbolTableRecord
100
AcDbLayerTableRecord
  2
画層182
 70
    0
 62
7
  6
CONTINUOUS
  0
LAYER
  5
F0
100
AcDbSymbolTableRecord
100
AcDbLayerTableRecord
  2
画層183
 70
    0
 62
7
  6
CONTINUOUS
  0
LAYER
  5
F1
100
AcDbSymbolTableRecord
100
AcDbLayerTableRecord
  2
画層184
 70
    0
 62
7
  6
CONTINUOUS
  0
LAYER
  5
F2
100
AcDbSymbolTableRecord
100
AcDbLayerTableRecord
  2
画層185
 70
    0
 62
7
  6
CONTINUOUS
  0
LAYER
  5
F3
100
AcDbSymbolTableRecord
100
AcDbLayerTableRecord
  2
画層186
 70
    0
 62
7
  6
CONTINUOUS
  0
LAYER
  5
F4
100
AcDbSymbolTableRecord
100
AcDbLayerTableRecord
  2
画層187
 70
    0
 62
7
  6
CONTINUOUS
  0
LAYER
  5
F5
100
AcDbSymbolTableRecord
100
AcDbLayerTableRecord
  2
画層188
 70
    0
 62
7
  6
CONTINUOUS
  0
LAYER
  5
F6
100
AcDbSymbolTableRecord
100
AcDbLayerTableRecord
  2
画層189
 70
    0
 62
7
  6
CONTINUOUS
  0
LAYER
  5
F7
100
AcDbSymbolTableRecord
100
AcDbLayerTableRecord
  2
画層190
 70
    0
 62
7
  6
CONTINUOUS
  0
LAYER
  5
F8
100
AcDbSymbolTableRecord
100
AcDbLayerTableRecord
  2
画層191
 70
    0
 62
7
  6
CONTINUOUS
  0
LAYER
  5
F9
100
AcDbSymbolTableRecord
100
AcDbLayerTableRecord
  2
画層192
 70
    0
 62
7
  6
CONTINUOUS
  0
LAYER
  5
FA
100
AcDbSymbolTableRecord
100
AcDbLayerTableRecord
  2
画層193
 70
    0
 62
7
  6
CONTINUOUS
  0
LAYER
  5
FB
100
AcDbSymbolTableRecord
100
AcDbLayerTableRecord
  2
画層194
 70
    0
 62
7
  6
CONTINUOUS
  0
LAYER
  5
FC
100
AcDbSymbolTableRecord
100
AcDbLayerTableRecord
  2
画層195
 70
    0
 62
7
  6
CONTINUOUS
  0
LAYER
  5
FD
100
AcDbSymbolTableRecord
100
AcDbLayerTableRecord
  2
画層196
 70
    0
 62
7
  6
CONTINUOUS
  0
LAYER
  5
FE
100
AcDbSymbolTableRecord
100
AcDbLayerTableRecord
  2
画層197
 70
    0
 62
7
  6
CONTINUOUS
  0
LAYER
  5
FF
100
AcDbSymbolTableRecord
100
AcDbLayerTableRecord
  2
画層198
 70
    0
 62
7
  6
CONTINUOUS
  0
LAYER
  5
100
100
AcDbSymbolTableRecord
100
AcDbLayerTableRecord
  2
画層199
 70
    0
 62
7
  6
CONTINUOUS
  0
LAYER
  5
101
100
AcDbSymbolTableRecord
100
AcDbLayerTableRecord
  2
画層200
 70
    0
 62
7
  6
CONTINUOUS
  0
LAYER
  5
102
100
AcDbSymbolTableRecord
100
AcDbLayerTableRecord
  2
画層201
 70
    0
 62
7
  6
CONTINUOUS
  0
LAYER
  5
103
100
AcDbSymbolTableRecord
100
AcDbLayerTableRecord
  2
画層202
 70
    0
 62
7
  6
CONTINUOUS
  0
LAYER
  5
104
100
AcDbSymbolTableRecord
100
AcDbLayerTableRecord
  2
画層203
 70
    0
 62
7
  6
CONTINUOUS
  0
LAYER
  5
105
100
AcDbSymbolTableRecord
100
AcDbLayerTableRecord
  2
画層204
 70
    0
 62
7
  6
CONTINUOUS
  0
LAYER
  5
106
100
AcDbSymbolTableRecord
100
AcDbLayerTableRecord
  2
画層205
 70
    0
 62
7
  6
CONTINUOUS
  0
LAYER
  5
107
100
AcDbSymbolTableRecord
100
AcDbLayerTableRecord
  2
画層206
 70
    0
 62
7
  6
CONTINUOUS
  0
LAYER
  5
108
100
AcDbSymbolTableRecord
100
AcDbLayerTableRecord
  2
画層207
 70
    0
 62
7
  6
CONTINUOUS
  0
LAYER
  5
109
100
AcDbSymbolTableRecord
100
AcDbLayerTableRecord
  2
画層208
 70
    0
 62
7
  6
CONTINUOUS
  0
LAYER
  5
10A
100
AcDbSymbolTableRecord
100
AcDbLayerTableRecord
  2
画層209
 70
    0
 62
7
  6
CONTINUOUS
  0
LAYER
  5
10B
100
AcDbSymbolTableRecord
100
AcDbLayerTableRecord
  2
画層210
 70
    0
 62
7
  6
CONTINUOUS
  0
LAYER
  5
10C
100
AcDbSymbolTableRecord
100
AcDbLayerTableRecord
  2
画層211
 70
    0
 62
7
  6
CONTINUOUS
  0
LAYER
  5
10D
100
AcDbSymbolTableRecord
100
AcDbLayerTableRecord
  2
画層212
 70
    0
 62
7
  6
CONTINUOUS
  0
LAYER
  5
10E
100
AcDbSymbolTableRecord
100
AcDbLayerTableRecord
  2
画層213
 70
    0
 62
7
  6
CONTINUOUS
  0
LAYER
  5
10F
100
AcDbSymbolTableRecord
100
AcDbLayerTableRecord
  2
画層214
 70
    0
 62
7
  6
CONTINUOUS
  0
LAYER
  5
110
100
AcDbSymbolTableRecord
100
AcDbLayerTableRecord
  2
画層215
 70
    0
 62
7
  6
CONTINUOUS
  0
LAYER
  5
111
100
AcDbSymbolTableRecord
100
AcDbLayerTableRecord
  2
画層216
 70
    0
 62
7
  6
CONTINUOUS
  0
LAYER
  5
112
100
AcDbSymbolTableRecord
100
AcDbLayerTableRecord
  2
画層217
 70
    0
 62
7
  6
CONTINUOUS
  0
LAYER
  5
113
100
AcDbSymbolTableRecord
100
AcDbLayerTableRecord
  2
画層218
 70
    0
 62
7
  6
CONTINUOUS
  0
LAYER
  5
114
100
AcDbSymbolTableRecord
100
AcDbLayerTableRecord
  2
画層219
 70
    0
 62
7
  6
CONTINUOUS
  0
LAYER
  5
115
100
AcDbSymbolTableRecord
100
AcDbLayerTableRecord
  2
画層220
 70
    0
 62
7
  6
CONTINUOUS
  0
LAYER
  5
116
100
AcDbSymbolTableRecord
100
AcDbLayerTableRecord
  2
画層221
 70
    0
 62
7
  6
CONTINUOUS
  0
LAYER
  5
117
100
AcDbSymbolTableRecord
100
AcDbLayerTableRecord
  2
画層222
 70
    0
 62
7
  6
CONTINUOUS
  0
LAYER
  5
118
100
AcDbSymbolTableRecord
100
AcDbLayerTableRecord
  2
画層223
 70
    0
 62
7
  6
CONTINUOUS
  0
LAYER
  5
119
100
AcDbSymbolTableRecord
100
AcDbLayerTableRecord
  2
画層224
 70
    0
 62
7
  6
CONTINUOUS
  0
LAYER
  5
11A
100
AcDbSymbolTableRecord
100
AcDbLayerTableRecord
  2
画層225
 70
    0
 62
7
  6
CONTINUOUS
  0
LAYER
  5
11B
100
AcDbSymbolTableRecord
100
AcDbLayerTableRecord
  2
画層226
 70
    0
 62
7
  6
CONTINUOUS
  0
LAYER
  5
11C
100
AcDbSymbolTableRecord
100
AcDbLayerTableRecord
  2
画層227
 70
    0
 62
7
  6
CONTINUOUS
  0
LAYER
  5
11D
100
AcDbSymbolTableRecord
100
AcDbLayerTableRecord
  2
画層228
 70
    0
 62
7
  6
CONTINUOUS
  0
LAYER
  5
11E
100
AcDbSymbolTableRecord
100
AcDbLayerTableRecord
  2
画層229
 70
    0
 62
7
  6
CONTINUOUS
  0
LAYER
  5
11F
100
AcDbSymbolTableRecord
100
AcDbLayerTableRecord
  2
画層230
 70
    0
 62
7
  6
CONTINUOUS
  0
LAYER
  5
120
100
AcDbSymbolTableRecord
100
AcDbLayerTableRecord
  2
画層231
 70
    0
 62
7
  6
CONTINUOUS
  0
LAYER
  5
121
100
AcDbSymbolTableRecord
100
AcDbLayerTableRecord
  2
画層232
 70
    0
 62
7
  6
CONTINUOUS
  0
LAYER
  5
122
100
AcDbSymbolTableRecord
100
AcDbLayerTableRecord
  2
画層233
 70
    0
 62
7
  6
CONTINUOUS
  0
LAYER
  5
123
100
AcDbSymbolTableRecord
100
AcDbLayerTableRecord
  2
画層234
 70
    0
 62
7
  6
CONTINUOUS
  0
LAYER
  5
124
100
AcDbSymbolTableRecord
100
AcDbLayerTableRecord
  2
画層235
 70
    0
 62
7
  6
CONTINUOUS
  0
LAYER
  5
125
100
AcDbSymbolTableRecord
100
AcDbLayerTableRecord
  2
画層236
 70
    0
 62
7
  6
CONTINUOUS
  0
LAYER
  5
126
100
AcDbSymbolTableRecord
100
AcDbLayerTableRecord
  2
画層237
 70
    0
 62
7
  6
CONTINUOUS
  0
LAYER
  5
127
100
AcDbSymbolTableRecord
100
AcDbLayerTableRecord
  2
画層238
 70
    0
 62
7
  6
CONTINUOUS
  0
LAYER
  5
128
100
AcDbSymbolTableRecord
100
AcDbLayerTableRecord
  2
画層239
 70
    0
 62
7
  6
CONTINUOUS
  0
LAYER
  5
129
100
AcDbSymbolTableRecord
100
AcDbLayerTableRecord
  2
画層240
 70
    0
 62
7
  6
CONTINUOUS
  0
LAYER
  5
12A
100
AcDbSymbolTableRecord
100
AcDbLayerTableRecord
  2
画層241
 70
    0
 62
7
  6
CONTINUOUS
  0
LAYER
  5
12B
100
AcDbSymbolTableRecord
100
AcDbLayerTableRecord
  2
画層242
 70
    0
 62
7
  6
CONTINUOUS
  0
LAYER
  5
12C
100
AcDbSymbolTableRecord
100
AcDbLayerTableRecord
  2
画層243
 70
    0
 62
7
  6
CONTINUOUS
  0
LAYER
  5
12D
100
AcDbSymbolTableRecord
100
AcDbLayerTableRecord
  2
画層244
 70
    0
 62
7
  6
CONTINUOUS
  0
LAYER
  5
12E
100
AcDbSymbolTableRecord
100
AcDbLayerTableRecord
  2
画層245
 70
    0
 62
7
  6
CONTINUOUS
  0
LAYER
  5
12F
100
AcDbSymbolTableRecord
100
AcDbLayerTableRecord
  2
画層246
 70
    0
 62
7
  6
CONTINUOUS
  0
LAYER
  5
130
100
AcDbSymbolTableRecord
100
AcDbLayerTableRecord
  2
画層247
 70
    0
 62
7
  6
CONTINUOUS
  0
LAYER
  5
131
100
AcDbSymbolTableRecord
100
AcDbLayerTableRecord
  2
画層248
 70
    0
 62
7
  6
CONTINUOUS
  0
LAYER
  5
132
100
AcDbSymbolTableRecord
100
AcDbLayerTableRecord
  2
画層249
 70
    0
 62
7
  6
CONTINUOUS
  0
LAYER
  5
133
100
AcDbSymbolTableRecord
100
AcDbLayerTableRecord
  2
画層250
 70
    0
 62
7
  6
CONTINUOUS
  0
LAYER
  5
134
100
AcDbSymbolTableRecord
100
AcDbLayerTableRecord
  2
画層251
 70
    0
 62
7
  6
CONTINUOUS
  0
LAYER
  5
135
100
AcDbSymbolTableRecord
100
AcDbLayerTableRecord
  2
画層252
 70
    0
 62
7
  6
CONTINUOUS
  0
LAYER
  5
136
100
AcDbSymbolTableRecord
100
AcDbLayerTableRecord
  2
画層253
 70
    0
 62
7
  6
CONTINUOUS
  0
LAYER
  5
137
100
AcDbSymbolTableRecord
100
AcDbLayerTableRecord
  2
画層254
 70
    0
 62
7
  6
CONTINUOUS
  0
LAYER
  5
138
100
AcDbSymbolTableRecord
100
AcDbLayerTableRecord
  2
画層255
 70
    0
 62
7
  6
CONTINUOUS
  0
LAYER
  5
139
100
AcDbSymbolTableRecord
100
AcDbLayerTableRecord
  2
0
 70
   64
 62
    7
  6
CONTINUOUS
  0
ENDTAB
  0
TABLE
  2
STYLE
  5
4
100
AcDbSymbolTable
 70
     1
  0
STYLE
  5
13A
100
AcDbSymbolTableRecord
100
AcDbTextStyleTableRecord
  2
Standard
 70
     0
 40
0.0
 41
1.0
 50
0.0
 71
     0
 42
3.2
  3
TXT
  4
BIGFONT
  0
STYLE
  5
13B
100
AcDbSymbolTableRecord
100
AcDbTextStyleTableRecord
  2
Font_0
 70
     0
 40
0.0
 41
1.0
 50
0.0
 71
     0
 42
3.2
  3
MS Gothic.ttf
  4

1001
ACAD
1000
MS Gothic
1071
  32817
  0
ENDTAB
  0
TABLE
  2
VIEW
  5
5
100
AcDbSymbolTable
 70
     0
  0
ENDTAB
  0
TABLE
  2
UCS
  5
6
100
AcDbSymbolTable
 70
     0
  0
ENDTAB
  0
TABLE
  2
APPID
  5
7
100
AcDbSymbolTable
 70
     1
  0
APPID
  5
13C
100
AcDbSymbolTableRecord
100
AcDbRegAppTableRecord
  2
ACAD
 70
     0
  0
ENDTAB
  0
TABLE
  2
DIMSTYLE
  5
8
100
AcDbSymbolTable
 70
     1
  0
DIMSTYLE
105
2A
100
AcDbSymbolTableRecord
100
AcDbDimStyleTableRecord
  2
STANDARD
 70
     0
  3

  4

  5

  6

  7

 40
1.0
 41
2.5
 42
2.0
 43
7.0
 44
1.25
 45
0.0
 46
0.0
 47
0.0
 48
0.0
 71
     0
 72
     0
 73
     0
 74
     0
 75
     0
 76
     0
 77
     1
 78
     0
140
2.5
141
2.5
142
0.0
143
0.0394
144
1.0
145
0.0
146
1.0
147
1.0
170
     0
171
     2
172
     0
173
     0
174
     1
175
     0
176
     0
177
     0
178
     0
270
     2
271
     2
272
     4
273
     2
274
     2
275
     0
280
     0
281
     0
282
     0
283
     1
284
     0
285
     0
286
     0
287
     3
288
     0
  0
ENDTAB
  0
TABLE
  2
BLOCK_RECORD
  5
9
100
AcDbSymbolTable
 70
     0
  0
BLOCK_RECORD
  5
13D
100
AcDbSymbolTableRecord
100
AcDbBlockTableRecord
  2
*MODEL_SPACE
  0
BLOCK_RECORD
  5
13E
100
AcDbSymbolTableRecord
100
AcDbBlockTableRecord
  2
*PAPER_SPACE
  0
ENDTAB
  0
ENDSEC
  0
SECTION
  2
BLOCKS
  0
BLOCK
  5
140
100
AcDbEntity
  8
0
100
AcDbBlockBegin
2
*MODEL_SPACE
 70
     0
 10
0.0
 20
0.0
 30
0.0
  3
*MODEL_SPACE
  1

  0
ENDBLK
  5
141
100
AcDbEntity
  8
画層0
100
AcDbBlockEnd
  0
BLOCK
  5
142
100
AcDbEntity
 67
     1
  8
画層0
100
AcDbBlockBegin
  2
*PAPER_SPACE
 70
     0
 10
0.0
 20
0.0
 30
0.0
  3
*PAPER_SPACE
  1

  0
ENDBLK
  5
143
100
AcDbEntity
 67
     1
  8
画層0
100
AcDbBlockEnd
  0
ENDSEC
  0
SECTION
  2
ENTITIES
  0
LINE
  5
144
100
AcDbEntity
  8
画層0
100
AcDbLine
  6
CONTINUOUS
 10
150
 20
170
 11
150
 21
130
  0
LINE
  5
145
100
AcDbEntity
  8
画層0
100
AcDbLine
  6
CONTINUOUS
 10
140
 20
160
 11
140
 21
140
  0
LINE
  5
146
100
AcDbEntity
  8
画層0
100
AcDbLine
  6
CONTINUOUS
 10
150
 20
150
 11
170
 21
150
  0
LINE
  5
147
100
AcDbEntity
  8
画層0
100
AcDbLine
  6
CONTINUOUS
 10
150
 20
165
 11
170
 21
165
  0
LINE
  5
148
100
AcDbEntity
  8
画層0
100
AcDbLine
  6
CONTINUOUS
 10
170
 20
135
 11
150
 21
135
  0
LINE
  5
149
100
AcDbEntity
  8
画層0
100
AcDbLine
  6
CONTINUOUS
 10
140
 20
150
 11
130
 21
150
  0
LINE
  5
14A
100
AcDbEntity
  8
画層0
100
AcDbLine
  6
CONTINUOUS
 10
170
 20
150
 11
160
 21
147.5
  0
LINE
  5
14B
100
AcDbEntity
  8
画層0
100
AcDbLine
  6
CONTINUOUS
 10
170
 20
150
 11
160
 21
152.5
  0
LINE
  5
14C
100
AcDbEntity
  8
画層0
100
AcDbLine
  6
CONTINUOUS
 10
170
 20
135
 11
170
 21
130
  0
LINE
  5
14D
100
AcDbEntity
  8
画層0
100
AcDbLine
  6
CONTINUOUS
 10
170
 20
150
 11
170
 21
170
  0
LINE
  5
14E
100
AcDbEntity
  8
画層0
100
AcDbLine
  6
CONTINUOUS
 10
170
 20
130
 11
170
 21
110
  0
LINE
  5
14F
100
AcDbEntity
  8
画層0
100
AcDbLine
  6
CONTINUOUS
 10
170
 20
110
 11
210
 21
110
  0
LINE
  5
150
100
AcDbEntity
  8
画層0
100
AcDbLine
  6
CONTINUOUS
 10
170
 20
110
 11
170
 21
90
  0
LINE
  5
151
100
AcDbEntity
  8
画層0
100
AcDbLine
  6
CONTINUOUS
 10
150
 20
50
 11
150
 21
90
  0
LINE
  5
152
100
AcDbEntity
  8
画層0
100
AcDbLine
  6
CONTINUOUS
 10
140
 20
60
 11
140
 21
80
  0
LINE
  5
153
100
AcDbEntity
  8
画層0
100
AcDbLine
  6
CONTINUOUS
 10
140
 20
70
 11
130
 21
70
  0
LINE
  5
154
100
AcDbEntity
  8
画層0
100
AcDbLine
  6
CONTINUOUS
 10
110
 20
150
 11
130
 21
150
  0
LINE
  5
155
100
AcDbEntity
  8
画層0
100
AcDbLine
  6
CONTINUOUS
 10
130
 20
70
 11
110
 21
70
  0
LINE
  5
156
100
AcDbEntity
  8
画層0
100
AcDbLine
  6
CONTINUOUS
 10
110
 20
70
 11
110
 21
150
  0
LINE
  5
157
100
AcDbEntity
  8
画層0
100
AcDbLine
  6
CONTINUOUS
 10
110
 20
110
 11
70
 21
110
  0
LINE
  5
158
100
AcDbEntity
  8
画層0
100
AcDbLine
  6
CONTINUOUS
 10
170
 20
170
 11
170
 21
190
  0
LINE
  5
159
100
AcDbEntity
  8
画層0
100
AcDbLine
  6
CONTINUOUS
 10
210
 20
190
 11
70
 21
190
  0
LINE
  5
15A
100
AcDbEntity
  8
画層0
100
AcDbLine
  6
CONTINUOUS
 10
149
 20
170
 11
149
 21
130
  0
LINE
  5
15B
100
AcDbEntity
  8
画層0
100
AcDbLine
  6
CONTINUOUS
 10
151
 20
170
 11
151
 21
130
  0
LINE
  5
15C
100
AcDbEntity
  8
画層0
100
AcDbLine
  6
CONTINUOUS
 10
139
 20
160
 11
139
 21
140
  0
LINE
  5
15D
100
AcDbEntity
  8
画層0
100
AcDbLine
  6
CONTINUOUS
 10
141
 20
160
 11
141
 21
140
  0
LWPOLYLINE
  5
15E
100
AcDbEntity
  8
画層0
100
AcDbPolyline
  6
CONTINUOUS
 90
     4
 70
     1
 10
149
  20
130
 10
151
  20
130
 10
151
  20
170
 10
149
  20
170
  0
SOLID
  5
15F
100
AcDbEntity
  8
画層0
100
AcDbTrace
 10
149
 20
130
 30
0.0
 11
151
 21
130
 31
0.0
 12
149
 22
170
 32
0.0
 13
151
 23
170
 33
0.0
  0
LWPOLYLINE
  5
160
100
AcDbEntity
  8
画層0
100
AcDbPolyline
  6
CONTINUOUS
 90
     4
 70
     1
 10
139
  20
140
 10
141
  20
140
 10
141
  20
160
 10
139
  20
160
  0
SOLID
  5
161
100
AcDbEntity
  8
画層0
100
AcDbTrace
 10
139
 20
140
 30
0.0
 11
141
 21
140
 31
0.0
 12
139
 22
160
 32
0.0
 13
141
 23
160
 33
0.0
  0
LWPOLYLINE
  5
162
100
AcDbEntity
  8
画層0
100
AcDbPolyline
  6
CONTINUOUS
 90
     3
 70
     1
 10
170
  20
150
 10
160
  20
152.5
 10
160
  20
147.5
  0
SOLID
  5
163
100
AcDbEntity
  8
画層0
100
AcDbTrace
 10
170
 20
150
 30
0.0
 11
160
 21
152.5
 31
0.0
 12
160
 22
147.5
 32
0.0
 13
160
 23
147.5
 33
0.0
  0
CIRCLE
  5
164
100
AcDbEntity
  8
画層0
100
AcDbCircle
  6
CONTINUOUS
 10
170
 20
190
 40
2
  0
SOLID
  5
165
100
AcDbEntity
  8
画層0
100
AcDbTrace
 10
171.984229402629
 20
189.749333532871
 30
0.0
 11
172
 21
190
 31
0.0
 12
171.984229402629
 22
190.250666467129
 32
0.0
 13
171.984229402629
 23
190.250666467129
 33
0.0
  0
SOLID
  5
166
100
AcDbEntity
  8
画層0
100
AcDbTrace
 10
171.984229402629
 20
189.749333532871
 30
0.0
 11
171.984229402629
 21
190.250666467129
 31
0.0
 12
171.937166322257
 22
190.49737977433
 32
0.0
 13
171.937166322257
 23
190.49737977433
 33
0.0
  0
SOLID
  5
167
100
AcDbEntity
  8
画層0
100
AcDbTrace
 10
171.984229402629
 20
189.749333532871
 30
0.0
 11
171.937166322257
 21
190.49737977433
 31
0.0
 12
171.859552971777
 22
190.736249105369
 32
0.0
 13
171.859552971777
 23
190.736249105369
 33
0.0
  0
SOLID
  5
168
100
AcDbEntity
  8
画層0
100
AcDbTrace
 10
171.984229402629
 20
189.749333532871
 30
0.0
 11
171.859552971777
 21
190.736249105369
 31
0.0
 12
171.752613360088
 22
190.963507348203
 32
0.0
 13
171.752613360088
 23
190.963507348203
 33
0.0
  0
SOLID
  5
169
100
AcDbEntity
  8
画層0
100
AcDbTrace
 10
171.984229402629
 20
189.749333532871
 30
0.0
 11
171.752613360088
 21
190.963507348203
 31
0.0
 12
171.61803398875
 22
191.175570504585
 32
0.0
 13
171.61803398875
 23
191.175570504585
 33
0.0
  0
SOLID
  5
16A
100
AcDbEntity
  8
画層0
100
AcDbTrace
 10
171.984229402629
 20
189.749333532871
 30
0.0
 11
171.61803398875
 21
191.175570504585
 31
0.0
 12
171.457937254843
 22
191.369094211857
 32
0.0
 13
171.457937254843
 23
191.369094211857
 33
0.0
  0
SOLID
  5
16B
100
AcDbEntity
  8
画層0
100
AcDbTrace
 10
171.984229402629
 20
189.749333532871
 30
0.0
 11
171.457937254843
 21
191.369094211857
 31
0.0
 12
171.274847979497
 22
191.541026485552
 32
0.0
 13
171.274847979497
 23
191.541026485552
 33
0.0
  0
SOLID
  5
16C
100
AcDbEntity
  8
画層0
100
AcDbTrace
 10
171.984229402629
 20
189.749333532871
 30
0.0
 11
171.274847979497
 21
191.541026485552
 31
0.0
 12
171.071653589958
 22
191.688655851004
 32
0.0
 13
171.071653589958
 23
191.688655851004
 33
0.0
  0
SOLID
  5
16D
100
AcDbEntity
  8
画層0
100
AcDbTrace
 10
171.984229402629
 20
189.749333532871
 30
0.0
 11
171.071653589958
 21
191.688655851004
 31
0.0
 12
170.85155858313
 22
191.809654104932
 32
0.0
 13
170.85155858313
 23
191.809654104932
 33
0.0
  0
SOLID
  5
16E
100
AcDbEntity
  8
画層0
100
AcDbTrace
 10
171.984229402629
 20
189.749333532871
 30
0.0
 11
170.85155858313
 21
191.809654104932
 31
0.0
 12
170.61803398875
 22
191.90211303259
 32
0.0
 13
170.61803398875
 23
191.90211303259
 33
0.0
  0
SOLID
  5
16F
100
AcDbEntity
  8
画層0
100
AcDbTrace
 10
171.984229402629
 20
189.749333532871
 30
0.0
 11
170.61803398875
 21
191.90211303259
 31
0.0
 12
170.374762629171
 22
191.964574501457
 32
0.0
 13
170.374762629171
 23
191.964574501457
 33
0.0
  0
SOLID
  5
170
100
AcDbEntity
  8
画層0
100
AcDbTrace
 10
171.984229402629
 20
189.749333532871
 30
0.0
 11
170.374762629171
 21
191.964574501457
 31
0.0
 12
170.125581039059
 22
191.996053456857
 32
0.0
 13
170.125581039059
 23
191.996053456857
 33
0.0
  0
SOLID
  5
171
100
AcDbEntity
  8
画層0
100
AcDbTrace
 10
171.984229402629
 20
189.749333532871
 30
0.0
 11
170.125581039059
 21
191.996053456857
 31
0.0
 12
169.874418960941
 22
191.996053456857
 32
0.0
 13
169.874418960941
 23
191.996053456857
 33
0.0
  0
SOLID
  5
172
100
AcDbEntity
  8
画層0
100
AcDbTrace
 10
171.984229402629
 20
189.749333532871
 30
0.0
 11
169.874418960941
 21
191.996053456857
 31
0.0
 12
169.625237370829
 22
191.964574501457
 32
0.0
 13
169.625237370829
 23
191.964574501457
 33
0.0
  0
SOLID
  5
173
100
AcDbEntity
  8
画層0
100
AcDbTrace
 10
171.984229402629
 20
189.749333532871
 30
0.0
 11
169.625237370829
 21
191.964574501457
 31
0.0
 12
169.38196601125
 22
191.90211303259
 32
0.0
 13
169.38196601125
 23
191.90211303259
 33
0.0
  0
SOLID
  5
174
100
AcDbEntity
  8
画層0
100
AcDbTrace
 10
171.984229402629
 20
189.749333532871
 30
0.0
 11
169.38196601125
 21
191.90211303259
 31
0.0
 12
169.14844141687
 22
191.809654104932
 32
0.0
 13
169.14844141687
 23
191.809654104932
 33
0.0
  0
SOLID
  5
175
100
AcDbEntity
  8
画層0
100
AcDbTrace
 10
171.984229402629
 20
189.749333532871
 30
0.0
 11
169.14844141687
 21
191.809654104932
 31
0.0
 12
168.928346410042
 22
191.688655851004
 32
0.0
 13
168.928346410042
 23
191.688655851004
 33
0.0
  0
SOLID
  5
176
100
AcDbEntity
  8
画層0
100
AcDbTrace
 10
171.984229402629
 20
189.749333532871
 30
0.0
 11
168.928346410042
 21
191.688655851004
 31
0.0
 12
168.725152020503
 22
191.541026485552
 32
0.0
 13
168.725152020503
 23
191.541026485552
 33
0.0
  0
SOLID
  5
177
100
AcDbEntity
  8
画層0
100
AcDbTrace
 10
171.984229402629
 20
189.749333532871
 30
0.0
 11
168.725152020503
 21
191.541026485552
 31
0.0
 12
168.542062745157
 22
191.369094211857
 32
0.0
 13
168.542062745157
 23
191.369094211857
 33
0.0
  0
SOLID
  5
178
100
AcDbEntity
  8
画層0
100
AcDbTrace
 10
171.984229402629
 20
189.749333532871
 30
0.0
 11
168.542062745157
 21
191.369094211857
 31
0.0
 12
168.38196601125
 22
191.175570504585
 32
0.0
 13
168.38196601125
 23
191.175570504585
 33
0.0
  0
SOLID
  5
179
100
AcDbEntity
  8
画層0
100
AcDbTrace
 10
171.984229402629
 20
189.749333532871
 30
0.0
 11
168.38196601125
 21
191.175570504585
 31
0.0
 12
168.247386639912
 22
190.963507348203
 32
0.0
 13
168.247386639912
 23
190.963507348203
 33
0.0
  0
SOLID
  5
17A
100
AcDbEntity
  8
画層0
100
AcDbTrace
 10
171.984229402629
 20
189.749333532871
 30
0.0
 11
168.247386639912
 21
190.963507348203
 31
0.0
 12
168.140447028223
 22
190.736249105369
 32
0.0
 13
168.140447028223
 23
190.736249105369
 33
0.0
  0
SOLID
  5
17B
100
AcDbEntity
  8
画層0
100
AcDbTrace
 10
171.984229402629
 20
189.749333532871
 30
0.0
 11
168.140447028223
 21
190.736249105369
 31
0.0
 12
168.062833677743
 22
190.49737977433
 32
0.0
 13
168.062833677743
 23
190.49737977433
 33
0.0
  0
SOLID
  5
17C
100
AcDbEntity
  8
画層0
100
AcDbTrace
 10
171.984229402629
 20
189.749333532871
 30
0.0
 11
168.062833677743
 21
190.49737977433
 31
0.0
 12
168.015770597371
 22
190.250666467129
 32
0.0
 13
168.015770597371
 23
190.250666467129
 33
0.0
  0
SOLID
  5
17D
100
AcDbEntity
  8
画層0
100
AcDbTrace
 10
171.984229402629
 20
189.749333532871
 30
0.0
 11
168.015770597371
 21
190.250666467129
 31
0.0
 12
168
 22
190
 32
0.0
 13
168
 23
190
 33
0.0
  0
SOLID
  5
17E
100
AcDbEntity
  8
画層0
100
AcDbTrace
 10
171.984229402629
 20
189.749333532871
 30
0.0
 11
168
 21
190
 31
0.0
 12
168.015770597371
 22
189.749333532871
 32
0.0
 13
168.015770597371
 23
189.749333532871
 33
0.0
  0
SOLID
  5
17F
100
AcDbEntity
  8
画層0
100
AcDbTrace
 10
171.984229402629
 20
189.749333532871
 30
0.0
 11
168.015770597371
 21
189.749333532871
 31
0.0
 12
168.062833677743
 22
189.50262022567
 32
0.0
 13
168.062833677743
 23
189.50262022567
 33
0.0
  0
SOLID
  5
180
100
AcDbEntity
  8
画層0
100
AcDbTrace
 10
171.984229402629
 20
189.749333532871
 30
0.0
 11
168.062833677743
 21
189.50262022567
 31
0.0
 12
168.140447028223
 22
189.263750894631
 32
0.0
 13
168.140447028223
 23
189.263750894631
 33
0.0
  0
SOLID
  5
181
100
AcDbEntity
  8
画層0
100
AcDbTrace
 10
171.984229402629
 20
189.749333532871
 30
0.0
 11
168.140447028223
 21
189.263750894631
 31
0.0
 12
168.247386639912
 22
189.036492651797
 32
0.0
 13
168.247386639912
 23
189.036492651797
 33
0.0
  0
SOLID
  5
182
100
AcDbEntity
  8
画層0
100
AcDbTrace
 10
171.984229402629
 20
189.749333532871
 30
0.0
 11
168.247386639912
 21
189.036492651797
 31
0.0
 12
168.38196601125
 22
188.824429495415
 32
0.0
 13
168.38196601125
 23
188.824429495415
 33
0.0
  0
SOLID
  5
183
100
AcDbEntity
  8
画層0
100
AcDbTrace
 10
171.984229402629
 20
189.749333532871
 30
0.0
 11
168.38196601125
 21
188.824429495415
 31
0.0
 12
168.542062745157
 22
188.630905788143
 32
0.0
 13
168.542062745157
 23
188.630905788143
 33
0.0
  0
SOLID
  5
184
100
AcDbEntity
  8
画層0
100
AcDbTrace
 10
171.984229402629
 20
189.749333532871
 30
0.0
 11
168.542062745157
 21
188.630905788143
 31
0.0
 12
168.725152020503
 22
188.458973514448
 32
0.0
 13
168.725152020503
 23
188.458973514448
 33
0.0
  0
SOLID
  5
185
100
AcDbEntity
  8
画層0
100
AcDbTrace
 10
171.984229402629
 20
189.749333532871
 30
0.0
 11
168.725152020503
 21
188.458973514448
 31
0.0
 12
168.928346410042
 22
188.311344148996
 32
0.0
 13
168.928346410042
 23
188.311344148996
 33
0.0
  0
SOLID
  5
186
100
AcDbEntity
  8
画層0
100
AcDbTrace
 10
171.984229402629
 20
189.749333532871
 30
0.0
 11
168.928346410042
 21
188.311344148996
 31
0.0
 12
169.14844141687
 22
188.190345895068
 32
0.0
 13
169.14844141687
 23
188.190345895068
 33
0.0
  0
SOLID
  5
187
100
AcDbEntity
  8
画層0
100
AcDbTrace
 10
171.984229402629
 20
189.749333532871
 30
0.0
 11
169.14844141687
 21
188.190345895068
 31
0.0
 12
169.38196601125
 22
188.09788696741
 32
0.0
 13
169.38196601125
 23
188.09788696741
 33
0.0
  0
SOLID
  5
188
100
AcDbEntity
  8
画層0
100
AcDbTrace
 10
171.984229402629
 20
189.749333532871
 30
0.0
 11
169.38196601125
 21
188.09788696741
 31
0.0
 12
169.625237370829
 22
188.035425498543
 32
0.0
 13
169.625237370829
 23
188.035425498543
 33
0.0
  0
SOLID
  5
189
100
AcDbEntity
  8
画層0
100
AcDbTrace
 10
171.984229402629
 20
189.749333532871
 30
0.0
 11
169.625237370829
 21
188.035425498543
 31
0.0
 12
169.874418960941
 22
188.003946543143
 32
0.0
 13
169.874418960941
 23
188.003946543143
 33
0.0
  0
SOLID
  5
18A
100
AcDbEntity
  8
画層0
100
AcDbTrace
 10
171.984229402629
 20
189.749333532871
 30
0.0
 11
169.874418960941
 21
188.003946543143
 31
0.0
 12
170.125581039059
 22
188.003946543143
 32
0.0
 13
170.125581039059
 23
188.003946543143
 33
0.0
  0
SOLID
  5
18B
100
AcDbEntity
  8
画層0
100
AcDbTrace
 10
171.984229402629
 20
189.749333532871
 30
0.0
 11
170.125581039059
 21
188.003946543143
 31
0.0
 12
170.374762629171
 22
188.035425498543
 32
0.0
 13
170.374762629171
 23
188.035425498543
 33
0.0
  0
SOLID
  5
18C
100
AcDbEntity
  8
画層0
100
AcDbTrace
 10
171.984229402629
 20
189.749333532871
 30
0.0
 11
170.374762629171
 21
188.035425498543
 31
0.0
 12
170.61803398875
 22
188.09788696741
 32
0.0
 13
170.61803398875
 23
188.09788696741
 33
0.0
  0
SOLID
  5
18D
100
AcDbEntity
  8
画層0
100
AcDbTrace
 10
171.984229402629
 20
189.749333532871
 30
0.0
 11
170.61803398875
 21
188.09788696741
 31
0.0
 12
170.85155858313
 22
188.190345895068
 32
0.0
 13
170.85155858313
 23
188.190345895068
 33
0.0
  0
SOLID
  5
18E
100
AcDbEntity
  8
画層0
100
AcDbTrace
 10
171.984229402629
 20
189.749333532871
 30
0.0
 11
170.85155858313
 21
188.190345895068
 31
0.0
 12
171.071653589958
 22
188.311344148996
 32
0.0
 13
171.071653589958
 23
188.311344148996
 33
0.0
  0
SOLID
  5
18F
100
AcDbEntity
  8
画層0
100
AcDbTrace
 10
171.984229402629
 20
189.749333532871
 30
0.0
 11
171.071653589958
 21
188.311344148996
 31
0.0
 12
171.274847979497
 22
188.458973514448
 32
0.0
 13
171.274847979497
 23
188.458973514448
 33
0.0
  0
SOLID
  5
190
100
AcDbEntity
  8
画層0
100
AcDbTrace
 10
171.984229402629
 20
189.749333532871
 30
0.0
 11
171.274847979497
 21
188.458973514448
 31
0.0
 12
171.457937254843
 22
188.630905788143
 32
0.0
 13
171.457937254843
 23
188.630905788143
 33
0.0
  0
SOLID
  5
191
100
AcDbEntity
  8
画層0
100
AcDbTrace
 10
171.984229402629
 20
189.749333532871
 30
0.0
 11
171.457937254843
 21
188.630905788143
 31
0.0
 12
171.61803398875
 22
188.824429495415
 32
0.0
 13
171.61803398875
 23
188.824429495415
 33
0.0
  0
SOLID
  5
192
100
AcDbEntity
  8
画層0
100
AcDbTrace
 10
171.984229402629
 20
189.749333532871
 30
0.0
 11
171.61803398875
 21
188.824429495415
 31
0.0
 12
171.752613360088
 22
189.036492651797
 32
0.0
 13
171.752613360088
 23
189.036492651797
 33
0.0
  0
SOLID
  5
193
100
AcDbEntity
  8
画層0
100
AcDbTrace
 10
171.984229402629
 20
189.749333532871
 30
0.0
 11
171.752613360088
 21
189.036492651797
 31
0.0
 12
171.859552971777
 22
189.263750894631
 32
0.0
 13
171.859552971777
 23
189.263750894631
 33
0.0
  0
SOLID
  5
194
100
AcDbEntity
  8
画層0
100
AcDbTrace
 10
171.984229402629
 20
189.749333532871
 30
0.0
 11
171.859552971777
 21
189.263750894631
 31
0.0
 12
171.937166322257
 22
189.50262022567
 32
0.0
 13
171.937166322257
 23
189.50262022567
 33
0.0
  0
LINE
  5
195
100
AcDbEntity
  8
画層0
100
AcDbLine
  6
CONTINUOUS
 10
170
 20
85
 11
150
 21
85
  0
LINE
  5
196
100
AcDbEntity
  8
画層0
100
AcDbLine
  6
CONTINUOUS
 10
170
 20
55
 11
150
 21
55
  0
LINE
  5
197
100
AcDbEntity
  8
画層0
100
AcDbLine
  6
CONTINUOUS
 10
170
 20
70
 11
150
 21
70
  0
LWPOLYLINE
  5
198
100
AcDbEntity
  8
画層0
100
AcDbPolyline
  6
CONTINUOUS
 90
     3
 70
     1
 10
160
  20
67.5
 10
160
  20
72.5
 10
150
  20
70
  0
SOLID
  5
199
100
AcDbEntity
  8
画層0
100
AcDbTrace
 10
160
 20
67.5
 30
0.0
 11
160
 21
72.5
 31
0.0
 12
150
 22
70
 32
0.0
 13
150
 23
70
 33
0.0
  0
LINE
  5
19A
100
AcDbEntity
  8
画層0
100
AcDbLine
  6
CONTINUOUS
 10
149
 20
90
 11
149
 21
50
  0
LINE
  5
19B
100
AcDbEntity
  8
画層0
100
AcDbLine
  6
CONTINUOUS
 10
151
 20
90
 11
151
 21
50
  0
LINE
  5
19C
100
AcDbEntity
  8
画層0
100
AcDbLine
  6
CONTINUOUS
 10
139
 20
80
 11
139
 21
60
  0
LINE
  5
19D
100
AcDbEntity
  8
画層0
100
AcDbLine
  6
CONTINUOUS
 10
141
 20
80
 11
141
 21
60
  0
LWPOLYLINE
  5
19E
100
AcDbEntity
  8
画層0
100
AcDbPolyline
  6
CONTINUOUS
 90
     4
 70
     1
 10
139
  20
60
 10
141
  20
60
 10
141
  20
80
 10
139
  20
80
  0
SOLID
  5
19F
100
AcDbEntity
  8
画層0
100
AcDbTrace
 10
139
 20
60
 30
0.0
 11
141
 21
60
 31
0.0
 12
139
 22
80
 32
0.0
 13
141
 23
80
 33
0.0
  0
LWPOLYLINE
  5
1A0
100
AcDbEntity
  8
画層0
100
AcDbPolyline
  6
CONTINUOUS
 90
     4
 70
     1
 10
149
  20
50
 10
151
  20
50
 10
151
  20
90
 10
149
  20
90
  0
SOLID
  5
1A1
100
AcDbEntity
  8
画層0
100
AcDbTrace
 10
149
 20
50
 30
0.0
 11
151
 21
50
 31
0.0
 12
149
 22
90
 32
0.0
 13
151
 23
90
 33
0.0
  0
LINE
  5
1A2
100
AcDbEntity
  8
画層0
100
AcDbLine
  6
CONTINUOUS
 10
170
 20
55
 11
170
 21
50
  0
LINE
  5
1A3
100
AcDbEntity
  8
画層0
100
AcDbLine
  6
CONTINUOUS
 10
170
 20
50
 11
170
 21
30
  0
LINE
  5
1A4
100
AcDbEntity
  8
画層0
100
AcDbLine
  6
CONTINUOUS
 10
200
 20
65
 11
220
 21
65
  0
LINE
  5
1A5
100
AcDbEntity
  8
画層0
100
AcDbLine
  6
CONTINUOUS
 10
200
 20
75
 11
220
 21
75
  0
LINE
  5
1A6
100
AcDbEntity
  8
画層0
100
AcDbLine
  6
CONTINUOUS
 10
80
 20
75
 11
60
 21
75
  0
LINE
  5
1A7
100
AcDbEntity
  8
画層0
100
AcDbLine
  6
CONTINUOUS
 10
80
 20
65
 11
60
 21
65
  0
LINE
  5
1A8
100
AcDbEntity
  8
画層0
100
AcDbLine
  6
CONTINUOUS
 10
200
 20
74
 11
220
 21
74
  0
LINE
  5
1A9
100
AcDbEntity
  8
画層0
100
AcDbLine
  6
CONTINUOUS
 10
200
 20
76
 11
220
 21
76
  0
LINE
  5
1AA
100
AcDbEntity
  8
画層0
100
AcDbLine
  6
CONTINUOUS
 10
200
 20
64
 11
220
 21
64
  0
LINE
  5
1AB
100
AcDbEntity
  8
画層0
100
AcDbLine
  6
CONTINUOUS
 10
200
 20
66
 11
220
 21
66
  0
LINE
  5
1AC
100
AcDbEntity
  8
画層0
100
AcDbLine
  6
CONTINUOUS
 10
60
 20
74
 11
80
 21
74
  0
LINE
  5
1AD
100
AcDbEntity
  8
画層0
100
AcDbLine
  6
CONTINUOUS
 10
60
 20
76
 11
80
 21
76
  0
LINE
  5
1AE
100
AcDbEntity
  8
画層0
100
AcDbLine
  6
CONTINUOUS
 10
60
 20
64
 11
80
 21
64
  0
LINE
  5
1AF
100
AcDbEntity
  8
画層0
100
AcDbLine
  6
CONTINUOUS
 10
60
 20
66
 11
80
 21
66
  0
CIRCLE
  5
1B0
100
AcDbEntity
  8
画層0
100
AcDbCircle
  6
CONTINUOUS
 10
170
 20
110
 40
2
  0
SOLID
  5
1B1
100
AcDbEntity
  8
画層0
100
AcDbTrace
 10
171.984229402629
 20
109.749333532871
 30
0.0
 11
172
 21
110
 31
0.0
 12
171.984229402629
 22
110.250666467129
 32
0.0
 13
171.984229402629
 23
110.250666467129
 33
0.0
  0
SOLID
  5
1B2
100
AcDbEntity
  8
画層0
100
AcDbTrace
 10
171.984229402629
 20
109.749333532871
 30
0.0
 11
171.984229402629
 21
110.250666467129
 31
0.0
 12
171.937166322257
 22
110.49737977433
 32
0.0
 13
171.937166322257
 23
110.49737977433
 33
0.0
  0
SOLID
  5
1B3
100
AcDbEntity
  8
画層0
100
AcDbTrace
 10
171.984229402629
 20
109.749333532871
 30
0.0
 11
171.937166322257
 21
110.49737977433
 31
0.0
 12
171.859552971777
 22
110.736249105369
 32
0.0
 13
171.859552971777
 23
110.736249105369
 33
0.0
  0
SOLID
  5
1B4
100
AcDbEntity
  8
画層0
100
AcDbTrace
 10
171.984229402629
 20
109.749333532871
 30
0.0
 11
171.859552971777
 21
110.736249105369
 31
0.0
 12
171.752613360088
 22
110.963507348203
 32
0.0
 13
171.752613360088
 23
110.963507348203
 33
0.0
  0
SOLID
  5
1B5
100
AcDbEntity
  8
画層0
100
AcDbTrace
 10
171.984229402629
 20
109.749333532871
 30
0.0
 11
171.752613360088
 21
110.963507348203
 31
0.0
 12
171.61803398875
 22
111.175570504585
 32
0.0
 13
171.61803398875
 23
111.175570504585
 33
0.0
  0
SOLID
  5
1B6
100
AcDbEntity
  8
画層0
100
AcDbTrace
 10
171.984229402629
 20
109.749333532871
 30
0.0
 11
171.61803398875
 21
111.175570504585
 31
0.0
 12
171.457937254843
 22
111.369094211857
 32
0.0
 13
171.457937254843
 23
111.369094211857
 33
0.0
  0
SOLID
  5
1B7
100
AcDbEntity
  8
画層0
100
AcDbTrace
 10
171.984229402629
 20
109.749333532871
 30
0.0
 11
171.457937254843
 21
111.369094211857
 31
0.0
 12
171.274847979497
 22
111.541026485552
 32
0.0
 13
171.274847979497
 23
111.541026485552
 33
0.0
  0
SOLID
  5
1B8
100
AcDbEntity
  8
画層0
100
AcDbTrace
 10
171.984229402629
 20
109.749333532871
 30
0.0
 11
171.274847979497
 21
111.541026485552
 31
0.0
 12
171.071653589958
 22
111.688655851004
 32
0.0
 13
171.071653589958
 23
111.688655851004
 33
0.0
  0
SOLID
  5
1B9
100
AcDbEntity
  8
画層0
100
AcDbTrace
 10
171.984229402629
 20
109.749333532871
 30
0.0
 11
171.071653589958
 21
111.688655851004
 31
0.0
 12
170.85155858313
 22
111.809654104932
 32
0.0
 13
170.85155858313
 23
111.809654104932
 33
0.0
  0
SOLID
  5
1BA
100
AcDbEntity
  8
画層0
100
AcDbTrace
 10
171.984229402629
 20
109.749333532871
 30
0.0
 11
170.85155858313
 21
111.809654104932
 31
0.0
 12
170.61803398875
 22
111.90211303259
 32
0.0
 13
170.61803398875
 23
111.90211303259
 33
0.0
  0
SOLID
  5
1BB
100
AcDbEntity
  8
画層0
100
AcDbTrace
 10
171.984229402629
 20
109.749333532871
 30
0.0
 11
170.61803398875
 21
111.90211303259
 31
0.0
 12
170.374762629171
 22
111.964574501457
 32
0.0
 13
170.374762629171
 23
111.964574501457
 33
0.0
  0
SOLID
  5
1BC
100
AcDbEntity
  8
画層0
100
AcDbTrace
 10
171.984229402629
 20
109.749333532871
 30
0.0
 11
170.374762629171
 21
111.964574501457
 31
0.0
 12
170.125581039059
 22
111.996053456857
 32
0.0
 13
170.125581039059
 23
111.996053456857
 33
0.0
  0
SOLID
  5
1BD
100
AcDbEntity
  8
画層0
100
AcDbTrace
 10
171.984229402629
 20
109.749333532871
 30
0.0
 11
170.125581039059
 21
111.996053456857
 31
0.0
 12
169.874418960941
 22
111.996053456857
 32
0.0
 13
169.874418960941
 23
111.996053456857
 33
0.0
  0
SOLID
  5
1BE
100
AcDbEntity
  8
画層0
100
AcDbTrace
 10
171.984229402629
 20
109.749333532871
 30
0.0
 11
169.874418960941
 21
111.996053456857
 31
0.0
 12
169.625237370829
 22
111.964574501457
 32
0.0
 13
169.625237370829
 23
111.964574501457
 33
0.0
  0
SOLID
  5
1BF
100
AcDbEntity
  8
画層0
100
AcDbTrace
 10
171.984229402629
 20
109.749333532871
 30
0.0
 11
169.625237370829
 21
111.964574501457
 31
0.0
 12
169.38196601125
 22
111.90211303259
 32
0.0
 13
169.38196601125
 23
111.90211303259
 33
0.0
  0
SOLID
  5
1C0
100
AcDbEntity
  8
画層0
100
AcDbTrace
 10
171.984229402629
 20
109.749333532871
 30
0.0
 11
169.38196601125
 21
111.90211303259
 31
0.0
 12
169.14844141687
 22
111.809654104932
 32
0.0
 13
169.14844141687
 23
111.809654104932
 33
0.0
  0
SOLID
  5
1C1
100
AcDbEntity
  8
画層0
100
AcDbTrace
 10
171.984229402629
 20
109.749333532871
 30
0.0
 11
169.14844141687
 21
111.809654104932
 31
0.0
 12
168.928346410042
 22
111.688655851004
 32
0.0
 13
168.928346410042
 23
111.688655851004
 33
0.0
  0
SOLID
  5
1C2
100
AcDbEntity
  8
画層0
100
AcDbTrace
 10
171.984229402629
 20
109.749333532871
 30
0.0
 11
168.928346410042
 21
111.688655851004
 31
0.0
 12
168.725152020503
 22
111.541026485552
 32
0.0
 13
168.725152020503
 23
111.541026485552
 33
0.0
  0
SOLID
  5
1C3
100
AcDbEntity
  8
画層0
100
AcDbTrace
 10
171.984229402629
 20
109.749333532871
 30
0.0
 11
168.725152020503
 21
111.541026485552
 31
0.0
 12
168.542062745157
 22
111.369094211857
 32
0.0
 13
168.542062745157
 23
111.369094211857
 33
0.0
  0
SOLID
  5
1C4
100
AcDbEntity
  8
画層0
100
AcDbTrace
 10
171.984229402629
 20
109.749333532871
 30
0.0
 11
168.542062745157
 21
111.369094211857
 31
0.0
 12
168.38196601125
 22
111.175570504585
 32
0.0
 13
168.38196601125
 23
111.175570504585
 33
0.0
  0
SOLID
  5
1C5
100
AcDbEntity
  8
画層0
100
AcDbTrace
 10
171.984229402629
 20
109.749333532871
 30
0.0
 11
168.38196601125
 21
111.175570504585
 31
0.0
 12
168.247386639912
 22
110.963507348203
 32
0.0
 13
168.247386639912
 23
110.963507348203
 33
0.0
  0
SOLID
  5
1C6
100
AcDbEntity
  8
画層0
100
AcDbTrace
 10
171.984229402629
 20
109.749333532871
 30
0.0
 11
168.247386639912
 21
110.963507348203
 31
0.0
 12
168.140447028223
 22
110.736249105369
 32
0.0
 13
168.140447028223
 23
110.736249105369
 33
0.0
  0
SOLID
  5
1C7
100
AcDbEntity
  8
画層0
100
AcDbTrace
 10
171.984229402629
 20
109.749333532871
 30
0.0
 11
168.140447028223
 21
110.736249105369
 31
0.0
 12
168.062833677743
 22
110.49737977433
 32
0.0
 13
168.062833677743
 23
110.49737977433
 33
0.0
  0
SOLID
  5
1C8
100
AcDbEntity
  8
画層0
100
AcDbTrace
 10
171.984229402629
 20
109.749333532871
 30
0.0
 11
168.062833677743
 21
110.49737977433
 31
0.0
 12
168.015770597371
 22
110.250666467129
 32
0.0
 13
168.015770597371
 23
110.250666467129
 33
0.0
  0
SOLID
  5
1C9
100
AcDbEntity
  8
画層0
100
AcDbTrace
 10
171.984229402629
 20
109.749333532871
 30
0.0
 11
168.015770597371
 21
110.250666467129
 31
0.0
 12
168
 22
110
 32
0.0
 13
168
 23
110
 33
0.0
  0
SOLID
  5
1CA
100
AcDbEntity
  8
画層0
100
AcDbTrace
 10
171.984229402629
 20
109.749333532871
 30
0.0
 11
168
 21
110
 31
0.0
 12
168.015770597371
 22
109.749333532871
 32
0.0
 13
168.015770597371
 23
109.749333532871
 33
0.0
  0
SOLID
  5
1CB
100
AcDbEntity
  8
画層0
100
AcDbTrace
 10
171.984229402629
 20
109.749333532871
 30
0.0
 11
168.015770597371
 21
109.749333532871
 31
0.0
 12
168.062833677743
 22
109.50262022567
 32
0.0
 13
168.062833677743
 23
109.50262022567
 33
0.0
  0
SOLID
  5
1CC
100
AcDbEntity
  8
画層0
100
AcDbTrace
 10
171.984229402629
 20
109.749333532871
 30
0.0
 11
168.062833677743
 21
109.50262022567
 31
0.0
 12
168.140447028223
 22
109.263750894631
 32
0.0
 13
168.140447028223
 23
109.263750894631
 33
0.0
  0
SOLID
  5
1CD
100
AcDbEntity
  8
画層0
100
AcDbTrace
 10
171.984229402629
 20
109.749333532871
 30
0.0
 11
168.140447028223
 21
109.263750894631
 31
0.0
 12
168.247386639912
 22
109.036492651797
 32
0.0
 13
168.247386639912
 23
109.036492651797
 33
0.0
  0
SOLID
  5
1CE
100
AcDbEntity
  8
画層0
100
AcDbTrace
 10
171.984229402629
 20
109.749333532871
 30
0.0
 11
168.247386639912
 21
109.036492651797
 31
0.0
 12
168.38196601125
 22
108.824429495415
 32
0.0
 13
168.38196601125
 23
108.824429495415
 33
0.0
  0
SOLID
  5
1CF
100
AcDbEntity
  8
画層0
100
AcDbTrace
 10
171.984229402629
 20
109.749333532871
 30
0.0
 11
168.38196601125
 21
108.824429495415
 31
0.0
 12
168.542062745157
 22
108.630905788143
 32
0.0
 13
168.542062745157
 23
108.630905788143
 33
0.0
  0
SOLID
  5
1D0
100
AcDbEntity
  8
画層0
100
AcDbTrace
 10
171.984229402629
 20
109.749333532871
 30
0.0
 11
168.542062745157
 21
108.630905788143
 31
0.0
 12
168.725152020503
 22
108.458973514448
 32
0.0
 13
168.725152020503
 23
108.458973514448
 33
0.0
  0
SOLID
  5
1D1
100
AcDbEntity
  8
画層0
100
AcDbTrace
 10
171.984229402629
 20
109.749333532871
 30
0.0
 11
168.725152020503
 21
108.458973514448
 31
0.0
 12
168.928346410042
 22
108.311344148996
 32
0.0
 13
168.928346410042
 23
108.311344148996
 33
0.0
  0
SOLID
  5
1D2
100
AcDbEntity
  8
画層0
100
AcDbTrace
 10
171.984229402629
 20
109.749333532871
 30
0.0
 11
168.928346410042
 21
108.311344148996
 31
0.0
 12
169.14844141687
 22
108.190345895068
 32
0.0
 13
169.14844141687
 23
108.190345895068
 33
0.0
  0
SOLID
  5
1D3
100
AcDbEntity
  8
画層0
100
AcDbTrace
 10
171.984229402629
 20
109.749333532871
 30
0.0
 11
169.14844141687
 21
108.190345895068
 31
0.0
 12
169.38196601125
 22
108.09788696741
 32
0.0
 13
169.38196601125
 23
108.09788696741
 33
0.0
  0
SOLID
  5
1D4
100
AcDbEntity
  8
画層0
100
AcDbTrace
 10
171.984229402629
 20
109.749333532871
 30
0.0
 11
169.38196601125
 21
108.09788696741
 31
0.0
 12
169.625237370829
 22
108.035425498543
 32
0.0
 13
169.625237370829
 23
108.035425498543
 33
0.0
  0
SOLID
  5
1D5
100
AcDbEntity
  8
画層0
100
AcDbTrace
 10
171.984229402629
 20
109.749333532871
 30
0.0
 11
169.625237370829
 21
108.035425498543
 31
0.0
 12
169.874418960941
 22
108.003946543143
 32
0.0
 13
169.874418960941
 23
108.003946543143
 33
0.0
  0
SOLID
  5
1D6
100
AcDbEntity
  8
画層0
100
AcDbTrace
 10
171.984229402629
 20
109.749333532871
 30
0.0
 11
169.874418960941
 21
108.003946543143
 31
0.0
 12
170.125581039059
 22
108.003946543143
 32
0.0
 13
170.125581039059
 23
108.003946543143
 33
0.0
  0
SOLID
  5
1D7
100
AcDbEntity
  8
画層0
100
AcDbTrace
 10
171.984229402629
 20
109.749333532871
 30
0.0
 11
170.125581039059
 21
108.003946543143
 31
0.0
 12
170.374762629171
 22
108.035425498543
 32
0.0
 13
170.374762629171
 23
108.035425498543
 33
0.0
  0
SOLID
  5
1D8
100
AcDbEntity
  8
画層0
100
AcDbTrace
 10
171.984229402629
 20
109.749333532871
 30
0.0
 11
170.374762629171
 21
108.035425498543
 31
0.0
 12
170.61803398875
 22
108.09788696741
 32
0.0
 13
170.61803398875
 23
108.09788696741
 33
0.0
  0
SOLID
  5
1D9
100
AcDbEntity
  8
画層0
100
AcDbTrace
 10
171.984229402629
 20
109.749333532871
 30
0.0
 11
170.61803398875
 21
108.09788696741
 31
0.0
 12
170.85155858313
 22
108.190345895068
 32
0.0
 13
170.85155858313
 23
108.190345895068
 33
0.0
  0
SOLID
  5
1DA
100
AcDbEntity
  8
画層0
100
AcDbTrace
 10
171.984229402629
 20
109.749333532871
 30
0.0
 11
170.85155858313
 21
108.190345895068
 31
0.0
 12
171.071653589958
 22
108.311344148996
 32
0.0
 13
171.071653589958
 23
108.311344148996
 33
0.0
  0
SOLID
  5
1DB
100
AcDbEntity
  8
画層0
100
AcDbTrace
 10
171.984229402629
 20
109.749333532871
 30
0.0
 11
171.071653589958
 21
108.311344148996
 31
0.0
 12
171.274847979497
 22
108.458973514448
 32
0.0
 13
171.274847979497
 23
108.458973514448
 33
0.0
  0
SOLID
  5
1DC
100
AcDbEntity
  8
画層0
100
AcDbTrace
 10
171.984229402629
 20
109.749333532871
 30
0.0
 11
171.274847979497
 21
108.458973514448
 31
0.0
 12
171.457937254843
 22
108.630905788143
 32
0.0
 13
171.457937254843
 23
108.630905788143
 33
0.0
  0
SOLID
  5
1DD
100
AcDbEntity
  8
画層0
100
AcDbTrace
 10
171.984229402629
 20
109.749333532871
 30
0.0
 11
171.457937254843
 21
108.630905788143
 31
0.0
 12
171.61803398875
 22
108.824429495415
 32
0.0
 13
171.61803398875
 23
108.824429495415
 33
0.0
  0
SOLID
  5
1DE
100
AcDbEntity
  8
画層0
100
AcDbTrace
 10
171.984229402629
 20
109.749333532871
 30
0.0
 11
171.61803398875
 21
108.824429495415
 31
0.0
 12
171.752613360088
 22
109.036492651797
 32
0.0
 13
171.752613360088
 23
109.036492651797
 33
0.0
  0
SOLID
  5
1DF
100
AcDbEntity
  8
画層0
100
AcDbTrace
 10
171.984229402629
 20
109.749333532871
 30
0.0
 11
171.752613360088
 21
109.036492651797
 31
0.0
 12
171.859552971777
 22
109.263750894631
 32
0.0
 13
171.859552971777
 23
109.263750894631
 33
0.0
  0
SOLID
  5
1E0
100
AcDbEntity
  8
画層0
100
AcDbTrace
 10
171.984229402629
 20
109.749333532871
 30
0.0
 11
171.859552971777
 21
109.263750894631
 31
0.0
 12
171.937166322257
 22
109.50262022567
 32
0.0
 13
171.937166322257
 23
109.50262022567
 33
0.0
  0
CIRCLE
  5
1E1
100
AcDbEntity
  8
画層0
100
AcDbCircle
  6
CONTINUOUS
 10
110
 20
110
 40
2
  0
SOLID
  5
1E2
100
AcDbEntity
  8
画層0
100
AcDbTrace
 10
111.984229402629
 20
109.749333532871
 30
0.0
 11
112
 21
110
 31
0.0
 12
111.984229402629
 22
110.250666467129
 32
0.0
 13
111.984229402629
 23
110.250666467129
 33
0.0
  0
SOLID
  5
1E3
100
AcDbEntity
  8
画層0
100
AcDbTrace
 10
111.984229402629
 20
109.749333532871
 30
0.0
 11
111.984229402629
 21
110.250666467129
 31
0.0
 12
111.937166322257
 22
110.49737977433
 32
0.0
 13
111.937166322257
 23
110.49737977433
 33
0.0
  0
SOLID
  5
1E4
100
AcDbEntity
  8
画層0
100
AcDbTrace
 10
111.984229402629
 20
109.749333532871
 30
0.0
 11
111.937166322257
 21
110.49737977433
 31
0.0
 12
111.859552971777
 22
110.736249105369
 32
0.0
 13
111.859552971777
 23
110.736249105369
 33
0.0
  0
SOLID
  5
1E5
100
AcDbEntity
  8
画層0
100
AcDbTrace
 10
111.984229402629
 20
109.749333532871
 30
0.0
 11
111.859552971777
 21
110.736249105369
 31
0.0
 12
111.752613360088
 22
110.963507348203
 32
0.0
 13
111.752613360088
 23
110.963507348203
 33
0.0
  0
SOLID
  5
1E6
100
AcDbEntity
  8
画層0
100
AcDbTrace
 10
111.984229402629
 20
109.749333532871
 30
0.0
 11
111.752613360088
 21
110.963507348203
 31
0.0
 12
111.61803398875
 22
111.175570504585
 32
0.0
 13
111.61803398875
 23
111.175570504585
 33
0.0
  0
SOLID
  5
1E7
100
AcDbEntity
  8
画層0
100
AcDbTrace
 10
111.984229402629
 20
109.749333532871
 30
0.0
 11
111.61803398875
 21
111.175570504585
 31
0.0
 12
111.457937254843
 22
111.369094211857
 32
0.0
 13
111.457937254843
 23
111.369094211857
 33
0.0
  0
SOLID
  5
1E8
100
AcDbEntity
  8
画層0
100
AcDbTrace
 10
111.984229402629
 20
109.749333532871
 30
0.0
 11
111.457937254843
 21
111.369094211857
 31
0.0
 12
111.274847979497
 22
111.541026485552
 32
0.0
 13
111.274847979497
 23
111.541026485552
 33
0.0
  0
SOLID
  5
1E9
100
AcDbEntity
  8
画層0
100
AcDbTrace
 10
111.984229402629
 20
109.749333532871
 30
0.0
 11
111.274847979497
 21
111.541026485552
 31
0.0
 12
111.071653589958
 22
111.688655851004
 32
0.0
 13
111.071653589958
 23
111.688655851004
 33
0.0
  0
SOLID
  5
1EA
100
AcDbEntity
  8
画層0
100
AcDbTrace
 10
111.984229402629
 20
109.749333532871
 30
0.0
 11
111.071653589958
 21
111.688655851004
 31
0.0
 12
110.85155858313
 22
111.809654104932
 32
0.0
 13
110.85155858313
 23
111.809654104932
 33
0.0
  0
SOLID
  5
1EB
100
AcDbEntity
  8
画層0
100
AcDbTrace
 10
111.984229402629
 20
109.749333532871
 30
0.0
 11
110.85155858313
 21
111.809654104932
 31
0.0
 12
110.61803398875
 22
111.90211303259
 32
0.0
 13
110.61803398875
 23
111.90211303259
 33
0.0
  0
SOLID
  5
1EC
100
AcDbEntity
  8
画層0
100
AcDbTrace
 10
111.984229402629
 20
109.749333532871
 30
0.0
 11
110.61803398875
 21
111.90211303259
 31
0.0
 12
110.374762629171
 22
111.964574501457
 32
0.0
 13
110.374762629171
 23
111.964574501457
 33
0.0
  0
SOLID
  5
1ED
100
AcDbEntity
  8
画層0
100
AcDbTrace
 10
111.984229402629
 20
109.749333532871
 30
0.0
 11
110.374762629171
 21
111.964574501457
 31
0.0
 12
110.125581039059
 22
111.996053456857
 32
0.0
 13
110.125581039059
 23
111.996053456857
 33
0.0
  0
SOLID
  5
1EE
100
AcDbEntity
  8
画層0
100
AcDbTrace
 10
111.984229402629
 20
109.749333532871
 30
0.0
 11
110.125581039059
 21
111.996053456857
 31
0.0
 12
109.874418960941
 22
111.996053456857
 32
0.0
 13
109.874418960941
 23
111.996053456857
 33
0.0
  0
SOLID
  5
1EF
100
AcDbEntity
  8
画層0
100
AcDbTrace
 10
111.984229402629
 20
109.749333532871
 30
0.0
 11
109.874418960941
 21
111.996053456857
 31
0.0
 12
109.625237370829
 22
111.964574501457
 32
0.0
 13
109.625237370829
 23
111.964574501457
 33
0.0
  0
SOLID
  5
1F0
100
AcDbEntity
  8
画層0
100
AcDbTrace
 10
111.984229402629
 20
109.749333532871
 30
0.0
 11
109.625237370829
 21
111.964574501457
 31
0.0
 12
109.38196601125
 22
111.90211303259
 32
0.0
 13
109.38196601125
 23
111.90211303259
 33
0.0
  0
SOLID
  5
1F1
100
AcDbEntity
  8
画層0
100
AcDbTrace
 10
111.984229402629
 20
109.749333532871
 30
0.0
 11
109.38196601125
 21
111.90211303259
 31
0.0
 12
109.14844141687
 22
111.809654104932
 32
0.0
 13
109.14844141687
 23
111.809654104932
 33
0.0
  0
SOLID
  5
1F2
100
AcDbEntity
  8
画層0
100
AcDbTrace
 10
111.984229402629
 20
109.749333532871
 30
0.0
 11
109.14844141687
 21
111.809654104932
 31
0.0
 12
108.928346410042
 22
111.688655851004
 32
0.0
 13
108.928346410042
 23
111.688655851004
 33
0.0
  0
SOLID
  5
1F3
100
AcDbEntity
  8
画層0
100
AcDbTrace
 10
111.984229402629
 20
109.749333532871
 30
0.0
 11
108.928346410042
 21
111.688655851004
 31
0.0
 12
108.725152020503
 22
111.541026485552
 32
0.0
 13
108.725152020503
 23
111.541026485552
 33
0.0
  0
SOLID
  5
1F4
100
AcDbEntity
  8
画層0
100
AcDbTrace
 10
111.984229402629
 20
109.749333532871
 30
0.0
 11
108.725152020503
 21
111.541026485552
 31
0.0
 12
108.542062745157
 22
111.369094211857
 32
0.0
 13
108.542062745157
 23
111.369094211857
 33
0.0
  0
SOLID
  5
1F5
100
AcDbEntity
  8
画層0
100
AcDbTrace
 10
111.984229402629
 20
109.749333532871
 30
0.0
 11
108.542062745157
 21
111.369094211857
 31
0.0
 12
108.38196601125
 22
111.175570504585
 32
0.0
 13
108.38196601125
 23
111.175570504585
 33
0.0
  0
SOLID
  5
1F6
100
AcDbEntity
  8
画層0
100
AcDbTrace
 10
111.984229402629
 20
109.749333532871
 30
0.0
 11
108.38196601125
 21
111.175570504585
 31
0.0
 12
108.247386639912
 22
110.963507348203
 32
0.0
 13
108.247386639912
 23
110.963507348203
 33
0.0
  0
SOLID
  5
1F7
100
AcDbEntity
  8
画層0
100
AcDbTrace
 10
111.984229402629
 20
109.749333532871
 30
0.0
 11
108.247386639912
 21
110.963507348203
 31
0.0
 12
108.140447028223
 22
110.736249105369
 32
0.0
 13
108.140447028223
 23
110.736249105369
 33
0.0
  0
SOLID
  5
1F8
100
AcDbEntity
  8
画層0
100
AcDbTrace
 10
111.984229402629
 20
109.749333532871
 30
0.0
 11
108.140447028223
 21
110.736249105369
 31
0.0
 12
108.062833677743
 22
110.49737977433
 32
0.0
 13
108.062833677743
 23
110.49737977433
 33
0.0
  0
SOLID
  5
1F9
100
AcDbEntity
  8
画層0
100
AcDbTrace
 10
111.984229402629
 20
109.749333532871
 30
0.0
 11
108.062833677743
 21
110.49737977433
 31
0.0
 12
108.015770597371
 22
110.250666467129
 32
0.0
 13
108.015770597371
 23
110.250666467129
 33
0.0
  0
SOLID
  5
1FA
100
AcDbEntity
  8
画層0
100
AcDbTrace
 10
111.984229402629
 20
109.749333532871
 30
0.0
 11
108.015770597371
 21
110.250666467129
 31
0.0
 12
108
 22
110
 32
0.0
 13
108
 23
110
 33
0.0
  0
SOLID
  5
1FB
100
AcDbEntity
  8
画層0
100
AcDbTrace
 10
111.984229402629
 20
109.749333532871
 30
0.0
 11
108
 21
110
 31
0.0
 12
108.015770597371
 22
109.749333532871
 32
0.0
 13
108.015770597371
 23
109.749333532871
 33
0.0
  0
SOLID
  5
1FC
100
AcDbEntity
  8
画層0
100
AcDbTrace
 10
111.984229402629
 20
109.749333532871
 30
0.0
 11
108.015770597371
 21
109.749333532871
 31
0.0
 12
108.062833677743
 22
109.50262022567
 32
0.0
 13
108.062833677743
 23
109.50262022567
 33
0.0
  0
SOLID
  5
1FD
100
AcDbEntity
  8
画層0
100
AcDbTrace
 10
111.984229402629
 20
109.749333532871
 30
0.0
 11
108.062833677743
 21
109.50262022567
 31
0.0
 12
108.140447028224
 22
109.263750894631
 32
0.0
 13
108.140447028224
 23
109.263750894631
 33
0.0
  0
SOLID
  5
1FE
100
AcDbEntity
  8
画層0
100
AcDbTrace
 10
111.984229402629
 20
109.749333532871
 30
0.0
 11
108.140447028224
 21
109.263750894631
 31
0.0
 12
108.247386639912
 22
109.036492651797
 32
0.0
 13
108.247386639912
 23
109.036492651797
 33
0.0
  0
SOLID
  5
1FF
100
AcDbEntity
  8
画層0
100
AcDbTrace
 10
111.984229402629
 20
109.749333532871
 30
0.0
 11
108.247386639912
 21
109.036492651797
 31
0.0
 12
108.38196601125
 22
108.824429495415
 32
0.0
 13
108.38196601125
 23
108.824429495415
 33
0.0
  0
SOLID
  5
200
100
AcDbEntity
  8
画層0
100
AcDbTrace
 10
111.984229402629
 20
109.749333532871
 30
0.0
 11
108.38196601125
 21
108.824429495415
 31
0.0
 12
108.542062745157
 22
108.630905788143
 32
0.0
 13
108.542062745157
 23
108.630905788143
 33
0.0
  0
SOLID
  5
201
100
AcDbEntity
  8
画層0
100
AcDbTrace
 10
111.984229402629
 20
109.749333532871
 30
0.0
 11
108.542062745157
 21
108.630905788143
 31
0.0
 12
108.725152020503
 22
108.458973514448
 32
0.0
 13
108.725152020503
 23
108.458973514448
 33
0.0
  0
SOLID
  5
202
100
AcDbEntity
  8
画層0
100
AcDbTrace
 10
111.984229402629
 20
109.749333532871
 30
0.0
 11
108.725152020503
 21
108.458973514448
 31
0.0
 12
108.928346410042
 22
108.311344148996
 32
0.0
 13
108.928346410042
 23
108.311344148996
 33
0.0
  0
SOLID
  5
203
100
AcDbEntity
  8
画層0
100
AcDbTrace
 10
111.984229402629
 20
109.749333532871
 30
0.0
 11
108.928346410042
 21
108.311344148996
 31
0.0
 12
109.14844141687
 22
108.190345895068
 32
0.0
 13
109.14844141687
 23
108.190345895068
 33
0.0
  0
SOLID
  5
204
100
AcDbEntity
  8
画層0
100
AcDbTrace
 10
111.984229402629
 20
109.749333532871
 30
0.0
 11
109.14844141687
 21
108.190345895068
 31
0.0
 12
109.38196601125
 22
108.09788696741
 32
0.0
 13
109.38196601125
 23
108.09788696741
 33
0.0
  0
SOLID
  5
205
100
AcDbEntity
  8
画層0
100
AcDbTrace
 10
111.984229402629
 20
109.749333532871
 30
0.0
 11
109.38196601125
 21
108.09788696741
 31
0.0
 12
109.625237370829
 22
108.035425498543
 32
0.0
 13
109.625237370829
 23
108.035425498543
 33
0.0
  0
SOLID
  5
206
100
AcDbEntity
  8
画層0
100
AcDbTrace
 10
111.984229402629
 20
109.749333532871
 30
0.0
 11
109.625237370829
 21
108.035425498543
 31
0.0
 12
109.874418960941
 22
108.003946543143
 32
0.0
 13
109.874418960941
 23
108.003946543143
 33
0.0
  0
SOLID
  5
207
100
AcDbEntity
  8
画層0
100
AcDbTrace
 10
111.984229402629
 20
109.749333532871
 30
0.0
 11
109.874418960941
 21
108.003946543143
 31
0.0
 12
110.125581039059
 22
108.003946543143
 32
0.0
 13
110.125581039059
 23
108.003946543143
 33
0.0
  0
SOLID
  5
208
100
AcDbEntity
  8
画層0
100
AcDbTrace
 10
111.984229402629
 20
109.749333532871
 30
0.0
 11
110.125581039059
 21
108.003946543143
 31
0.0
 12
110.374762629171
 22
108.035425498543
 32
0.0
 13
110.374762629171
 23
108.035425498543
 33
0.0
  0
SOLID
  5
209
100
AcDbEntity
  8
画層0
100
AcDbTrace
 10
111.984229402629
 20
109.749333532871
 30
0.0
 11
110.374762629171
 21
108.035425498543
 31
0.0
 12
110.61803398875
 22
108.09788696741
 32
0.0
 13
110.61803398875
 23
108.09788696741
 33
0.0
  0
SOLID
  5
20A
100
AcDbEntity
  8
画層0
100
AcDbTrace
 10
111.984229402629
 20
109.749333532871
 30
0.0
 11
110.61803398875
 21
108.09788696741
 31
0.0
 12
110.85155858313
 22
108.190345895068
 32
0.0
 13
110.85155858313
 23
108.190345895068
 33
0.0
  0
SOLID
  5
20B
100
AcDbEntity
  8
画層0
100
AcDbTrace
 10
111.984229402629
 20
109.749333532871
 30
0.0
 11
110.85155858313
 21
108.190345895068
 31
0.0
 12
111.071653589958
 22
108.311344148996
 32
0.0
 13
111.071653589958
 23
108.311344148996
 33
0.0
  0
SOLID
  5
20C
100
AcDbEntity
  8
画層0
100
AcDbTrace
 10
111.984229402629
 20
109.749333532871
 30
0.0
 11
111.071653589958
 21
108.311344148996
 31
0.0
 12
111.274847979497
 22
108.458973514448
 32
0.0
 13
111.274847979497
 23
108.458973514448
 33
0.0
  0
SOLID
  5
20D
100
AcDbEntity
  8
画層0
100
AcDbTrace
 10
111.984229402629
 20
109.749333532871
 30
0.0
 11
111.274847979497
 21
108.458973514448
 31
0.0
 12
111.457937254843
 22
108.630905788143
 32
0.0
 13
111.457937254843
 23
108.630905788143
 33
0.0
  0
SOLID
  5
20E
100
AcDbEntity
  8
画層0
100
AcDbTrace
 10
111.984229402629
 20
109.749333532871
 30
0.0
 11
111.457937254843
 21
108.630905788143
 31
0.0
 12
111.61803398875
 22
108.824429495415
 32
0.0
 13
111.61803398875
 23
108.824429495415
 33
0.0
  0
SOLID
  5
20F
100
AcDbEntity
  8
画層0
100
AcDbTrace
 10
111.984229402629
 20
109.749333532871
 30
0.0
 11
111.61803398875
 21
108.824429495415
 31
0.0
 12
111.752613360088
 22
109.036492651797
 32
0.0
 13
111.752613360088
 23
109.036492651797
 33
0.0
  0
SOLID
  5
210
100
AcDbEntity
  8
画層0
100
AcDbTrace
 10
111.984229402629
 20
109.749333532871
 30
0.0
 11
111.752613360088
 21
109.036492651797
 31
0.0
 12
111.859552971777
 22
109.263750894631
 32
0.0
 13
111.859552971777
 23
109.263750894631
 33
0.0
  0
SOLID
  5
211
100
AcDbEntity
  8
画層0
100
AcDbTrace
 10
111.984229402629
 20
109.749333532871
 30
0.0
 11
111.859552971777
 21
109.263750894631
 31
0.0
 12
111.937166322257
 22
109.50262022567
 32
0.0
 13
111.937166322257
 23
109.50262022567
 33
0.0
  0
LINE
  5
212
100
AcDbEntity
  8
画層0
100
AcDbLine
  6
CONTINUOUS
 10
210
 20
110
 11
210
 21
74
  0
LINE
  5
213
100
AcDbEntity
  8
画層0
100
AcDbLine
  6
CONTINUOUS
 10
210
 20
66
 11
210
 21
30
  0
LWPOLYLINE
  5
214
100
AcDbEntity
  8
画層0
100
AcDbPolyline
  6
CONTINUOUS
 90
     4
 70
     1
 10
200
  20
74
 10
220
  20
74
 10
220
  20
76
 10
200
  20
76
  0
SOLID
  5
215
100
AcDbEntity
  8
画層0
100
AcDbTrace
 10
200
 20
74
 30
0.0
 11
220
 21
74
 31
0.0
 12
200
 22
76
 32
0.0
 13
220
 23
76
 33
0.0
  0
LWPOLYLINE
  5
216
100
AcDbEntity
  8
画層0
100
AcDbPolyline
  6
CONTINUOUS
 90
     4
 70
     1
 10
200
  20
64
 10
220
  20
64
 10
220
  20
66
 10
200
  20
66
  0
SOLID
  5
217
100
AcDbEntity
  8
画層0
100
AcDbTrace
 10
200
 20
64
 30
0.0
 11
220
 21
64
 31
0.0
 12
200
 22
66
 32
0.0
 13
220
 23
66
 33
0.0
  0
LINE
  5
218
100
AcDbEntity
  8
画層0
100
AcDbLine
  6
CONTINUOUS
 10
250
 20
110
 11
210
 21
110
  0
LINE
  5
219
100
AcDbEntity
  8
画層0
100
AcDbLine
  6
CONTINUOUS
 10
250
 20
190
 11
210
 21
190
  0
LINE
  5
21A
100
AcDbEntity
  8
画層0
100
AcDbLine
  6
CONTINUOUS
 10
70
 20
110
 11
70
 21
74
  0
LINE
  5
21B
100
AcDbEntity
  8
画層0
100
AcDbLine
  6
CONTINUOUS
 10
70
 20
66
 11
70
 21
30
  0
LINE
  5
21C
100
AcDbEntity
  8
画層0
100
AcDbLine
  6
CONTINUOUS
 10
70
 20
110
 11
30
 21
110
  0
LINE
  5
21D
100
AcDbEntity
  8
画層0
100
AcDbLine
  6
CONTINUOUS
 10
70
 20
190
 11
30
 21
190
  0
CIRCLE
  5
21E
100
AcDbEntity
  8
画層0
100
AcDbCircle
  6
CONTINUOUS
 10
70
 20
110
 40
2
  0
SOLID
  5
21F
100
AcDbEntity
  8
画層0
100
AcDbTrace
 10
71.984229402629
 20
109.749333532871
 30
0.0
 11
72
 21
110
 31
0.0
 12
71.984229402629
 22
110.250666467129
 32
0.0
 13
71.984229402629
 23
110.250666467129
 33
0.0
  0
SOLID
  5
220
100
AcDbEntity
  8
画層0
100
AcDbTrace
 10
71.984229402629
 20
109.749333532871
 30
0.0
 11
71.984229402629
 21
110.250666467129
 31
0.0
 12
71.9371663222573
 22
110.49737977433
 32
0.0
 13
71.9371663222573
 23
110.49737977433
 33
0.0
  0
SOLID
  5
221
100
AcDbEntity
  8
画層0
100
AcDbTrace
 10
71.984229402629
 20
109.749333532871
 30
0.0
 11
71.9371663222573
 21
110.49737977433
 31
0.0
 12
71.8595529717765
 22
110.736249105369
 32
0.0
 13
71.8595529717765
 23
110.736249105369
 33
0.0
  0
SOLID
  5
222
100
AcDbEntity
  8
画層0
100
AcDbTrace
 10
71.984229402629
 20
109.749333532871
 30
0.0
 11
71.8595529717765
 21
110.736249105369
 31
0.0
 12
71.7526133600877
 22
110.963507348203
 32
0.0
 13
71.7526133600877
 23
110.963507348203
 33
0.0
  0
SOLID
  5
223
100
AcDbEntity
  8
画層0
100
AcDbTrace
 10
71.984229402629
 20
109.749333532871
 30
0.0
 11
71.7526133600877
 21
110.963507348203
 31
0.0
 12
71.6180339887499
 22
111.175570504585
 32
0.0
 13
71.6180339887499
 23
111.175570504585
 33
0.0
  0
SOLID
  5
224
100
AcDbEntity
  8
画層0
100
AcDbTrace
 10
71.984229402629
 20
109.749333532871
 30
0.0
 11
71.6180339887499
 21
111.175570504585
 31
0.0
 12
71.4579372548428
 22
111.369094211857
 32
0.0
 13
71.4579372548428
 23
111.369094211857
 33
0.0
  0
SOLID
  5
225
100
AcDbEntity
  8
画層0
100
AcDbTrace
 10
71.984229402629
 20
109.749333532871
 30
0.0
 11
71.4579372548428
 21
111.369094211857
 31
0.0
 12
71.2748479794974
 22
111.541026485552
 32
0.0
 13
71.2748479794974
 23
111.541026485552
 33
0.0
  0
SOLID
  5
226
100
AcDbEntity
  8
画層0
100
AcDbTrace
 10
71.984229402629
 20
109.749333532871
 30
0.0
 11
71.2748479794974
 21
111.541026485552
 31
0.0
 12
71.071653589958
 22
111.688655851004
 32
0.0
 13
71.071653589958
 23
111.688655851004
 33
0.0
  0
SOLID
  5
227
100
AcDbEntity
  8
画層0
100
AcDbTrace
 10
71.984229402629
 20
109.749333532871
 30
0.0
 11
71.071653589958
 21
111.688655851004
 31
0.0
 12
70.8515585831301
 22
111.809654104932
 32
0.0
 13
70.8515585831301
 23
111.809654104932
 33
0.0
  0
SOLID
  5
228
100
AcDbEntity
  8
画層0
100
AcDbTrace
 10
71.984229402629
 20
109.749333532871
 30
0.0
 11
70.8515585831301
 21
111.809654104932
 31
0.0
 12
70.6180339887499
 22
111.90211303259
 32
0.0
 13
70.6180339887499
 23
111.90211303259
 33
0.0
  0
SOLID
  5
229
100
AcDbEntity
  8
画層0
100
AcDbTrace
 10
71.984229402629
 20
109.749333532871
 30
0.0
 11
70.6180339887499
 21
111.90211303259
 31
0.0
 12
70.3747626291715
 22
111.964574501457
 32
0.0
 13
70.3747626291715
 23
111.964574501457
 33
0.0
  0
SOLID
  5
22A
100
AcDbEntity
  8
画層0
100
AcDbTrace
 10
71.984229402629
 20
109.749333532871
 30
0.0
 11
70.3747626291715
 21
111.964574501457
 31
0.0
 12
70.1255810390586
 22
111.996053456857
 32
0.0
 13
70.1255810390586
 23
111.996053456857
 33
0.0
  0
SOLID
  5
22B
100
AcDbEntity
  8
画層0
100
AcDbTrace
 10
71.984229402629
 20
109.749333532871
 30
0.0
 11
70.1255810390586
 21
111.996053456857
 31
0.0
 12
69.8744189609414
 22
111.996053456857
 32
0.0
 13
69.8744189609414
 23
111.996053456857
 33
0.0
  0
SOLID
  5
22C
100
AcDbEntity
  8
画層0
100
AcDbTrace
 10
71.984229402629
 20
109.749333532871
 30
0.0
 11
69.8744189609414
 21
111.996053456857
 31
0.0
 12
69.6252373708286
 22
111.964574501457
 32
0.0
 13
69.6252373708286
 23
111.964574501457
 33
0.0
  0
SOLID
  5
22D
100
AcDbEntity
  8
画層0
100
AcDbTrace
 10
71.984229402629
 20
109.749333532871
 30
0.0
 11
69.6252373708286
 21
111.964574501457
 31
0.0
 12
69.3819660112501
 22
111.90211303259
 32
0.0
 13
69.3819660112501
 23
111.90211303259
 33
0.0
  0
SOLID
  5
22E
100
AcDbEntity
  8
画層0
100
AcDbTrace
 10
71.984229402629
 20
109.749333532871
 30
0.0
 11
69.3819660112501
 21
111.90211303259
 31
0.0
 12
69.1484414168699
 22
111.809654104932
 32
0.0
 13
69.1484414168699
 23
111.809654104932
 33
0.0
  0
SOLID
  5
22F
100
AcDbEntity
  8
画層0
100
AcDbTrace
 10
71.984229402629
 20
109.749333532871
 30
0.0
 11
69.1484414168699
 21
111.809654104932
 31
0.0
 12
68.928346410042
 22
111.688655851004
 32
0.0
 13
68.928346410042
 23
111.688655851004
 33
0.0
  0
SOLID
  5
230
100
AcDbEntity
  8
画層0
100
AcDbTrace
 10
71.984229402629
 20
109.749333532871
 30
0.0
 11
68.928346410042
 21
111.688655851004
 31
0.0
 12
68.7251520205026
 22
111.541026485552
 32
0.0
 13
68.7251520205026
 23
111.541026485552
 33
0.0
  0
SOLID
  5
231
100
AcDbEntity
  8
画層0
100
AcDbTrace
 10
71.984229402629
 20
109.749333532871
 30
0.0
 11
68.7251520205026
 21
111.541026485552
 31
0.0
 12
68.5420627451572
 22
111.369094211857
 32
0.0
 13
68.5420627451572
 23
111.369094211857
 33
0.0
  0
SOLID
  5
232
100
AcDbEntity
  8
画層0
100
AcDbTrace
 10
71.984229402629
 20
109.749333532871
 30
0.0
 11
68.5420627451572
 21
111.369094211857
 31
0.0
 12
68.3819660112501
 22
111.175570504585
 32
0.0
 13
68.3819660112501
 23
111.175570504585
 33
0.0
  0
SOLID
  5
233
100
AcDbEntity
  8
画層0
100
AcDbTrace
 10
71.984229402629
 20
109.749333532871
 30
0.0
 11
68.3819660112501
 21
111.175570504585
 31
0.0
 12
68.2473866399123
 22
110.963507348203
 32
0.0
 13
68.2473866399123
 23
110.963507348203
 33
0.0
  0
SOLID
  5
234
100
AcDbEntity
  8
画層0
100
AcDbTrace
 10
71.984229402629
 20
109.749333532871
 30
0.0
 11
68.2473866399123
 21
110.963507348203
 31
0.0
 12
68.1404470282235
 22
110.736249105369
 32
0.0
 13
68.1404470282235
 23
110.736249105369
 33
0.0
  0
SOLID
  5
235
100
AcDbEntity
  8
画層0
100
AcDbTrace
 10
71.984229402629
 20
109.749333532871
 30
0.0
 11
68.1404470282235
 21
110.736249105369
 31
0.0
 12
68.0628336777427
 22
110.49737977433
 32
0.0
 13
68.0628336777427
 23
110.49737977433
 33
0.0
  0
SOLID
  5
236
100
AcDbEntity
  8
画層0
100
AcDbTrace
 10
71.984229402629
 20
109.749333532871
 30
0.0
 11
68.0628336777427
 21
110.49737977433
 31
0.0
 12
68.015770597371
 22
110.250666467129
 32
0.0
 13
68.015770597371
 23
110.250666467129
 33
0.0
  0
SOLID
  5
237
100
AcDbEntity
  8
画層0
100
AcDbTrace
 10
71.984229402629
 20
109.749333532871
 30
0.0
 11
68.015770597371
 21
110.250666467129
 31
0.0
 12
68
 22
110
 32
0.0
 13
68
 23
110
 33
0.0
  0
SOLID
  5
238
100
AcDbEntity
  8
画層0
100
AcDbTrace
 10
71.984229402629
 20
109.749333532871
 30
0.0
 11
68
 21
110
 31
0.0
 12
68.015770597371
 22
109.749333532871
 32
0.0
 13
68.015770597371
 23
109.749333532871
 33
0.0
  0
SOLID
  5
239
100
AcDbEntity
  8
画層0
100
AcDbTrace
 10
71.984229402629
 20
109.749333532871
 30
0.0
 11
68.015770597371
 21
109.749333532871
 31
0.0
 12
68.0628336777427
 22
109.50262022567
 32
0.0
 13
68.0628336777427
 23
109.50262022567
 33
0.0
  0
SOLID
  5
23A
100
AcDbEntity
  8
画層0
100
AcDbTrace
 10
71.984229402629
 20
109.749333532871
 30
0.0
 11
68.0628336777427
 21
109.50262022567
 31
0.0
 12
68.1404470282235
 22
109.263750894631
 32
0.0
 13
68.1404470282235
 23
109.263750894631
 33
0.0
  0
SOLID
  5
23B
100
AcDbEntity
  8
画層0
100
AcDbTrace
 10
71.984229402629
 20
109.749333532871
 30
0.0
 11
68.1404470282235
 21
109.263750894631
 31
0.0
 12
68.2473866399123
 22
109.036492651797
 32
0.0
 13
68.2473866399123
 23
109.036492651797
 33
0.0
  0
SOLID
  5
23C
100
AcDbEntity
  8
画層0
100
AcDbTrace
 10
71.984229402629
 20
109.749333532871
 30
0.0
 11
68.2473866399123
 21
109.036492651797
 31
0.0
 12
68.3819660112501
 22
108.824429495415
 32
0.0
 13
68.3819660112501
 23
108.824429495415
 33
0.0
  0
SOLID
  5
23D
100
AcDbEntity
  8
画層0
100
AcDbTrace
 10
71.984229402629
 20
109.749333532871
 30
0.0
 11
68.3819660112501
 21
108.824429495415
 31
0.0
 12
68.5420627451572
 22
108.630905788143
 32
0.0
 13
68.5420627451572
 23
108.630905788143
 33
0.0
  0
SOLID
  5
23E
100
AcDbEntity
  8
画層0
100
AcDbTrace
 10
71.984229402629
 20
109.749333532871
 30
0.0
 11
68.5420627451572
 21
108.630905788143
 31
0.0
 12
68.7251520205026
 22
108.458973514448
 32
0.0
 13
68.7251520205026
 23
108.458973514448
 33
0.0
  0
SOLID
  5
23F
100
AcDbEntity
  8
画層0
100
AcDbTrace
 10
71.984229402629
 20
109.749333532871
 30
0.0
 11
68.7251520205026
 21
108.458973514448
 31
0.0
 12
68.928346410042
 22
108.311344148996
 32
0.0
 13
68.928346410042
 23
108.311344148996
 33
0.0
  0
SOLID
  5
240
100
AcDbEntity
  8
画層0
100
AcDbTrace
 10
71.984229402629
 20
109.749333532871
 30
0.0
 11
68.928346410042
 21
108.311344148996
 31
0.0
 12
69.1484414168699
 22
108.190345895068
 32
0.0
 13
69.1484414168699
 23
108.190345895068
 33
0.0
  0
SOLID
  5
241
100
AcDbEntity
  8
画層0
100
AcDbTrace
 10
71.984229402629
 20
109.749333532871
 30
0.0
 11
69.1484414168699
 21
108.190345895068
 31
0.0
 12
69.3819660112501
 22
108.09788696741
 32
0.0
 13
69.3819660112501
 23
108.09788696741
 33
0.0
  0
SOLID
  5
242
100
AcDbEntity
  8
画層0
100
AcDbTrace
 10
71.984229402629
 20
109.749333532871
 30
0.0
 11
69.3819660112501
 21
108.09788696741
 31
0.0
 12
69.6252373708286
 22
108.035425498543
 32
0.0
 13
69.6252373708286
 23
108.035425498543
 33
0.0
  0
SOLID
  5
243
100
AcDbEntity
  8
画層0
100
AcDbTrace
 10
71.984229402629
 20
109.749333532871
 30
0.0
 11
69.6252373708286
 21
108.035425498543
 31
0.0
 12
69.8744189609414
 22
108.003946543143
 32
0.0
 13
69.8744189609414
 23
108.003946543143
 33
0.0
  0
SOLID
  5
244
100
AcDbEntity
  8
画層0
100
AcDbTrace
 10
71.984229402629
 20
109.749333532871
 30
0.0
 11
69.8744189609414
 21
108.003946543143
 31
0.0
 12
70.1255810390586
 22
108.003946543143
 32
0.0
 13
70.1255810390586
 23
108.003946543143
 33
0.0
  0
SOLID
  5
245
100
AcDbEntity
  8
画層0
100
AcDbTrace
 10
71.984229402629
 20
109.749333532871
 30
0.0
 11
70.1255810390586
 21
108.003946543143
 31
0.0
 12
70.3747626291715
 22
108.035425498543
 32
0.0
 13
70.3747626291715
 23
108.035425498543
 33
0.0
  0
SOLID
  5
246
100
AcDbEntity
  8
画層0
100
AcDbTrace
 10
71.984229402629
 20
109.749333532871
 30
0.0
 11
70.3747626291715
 21
108.035425498543
 31
0.0
 12
70.6180339887499
 22
108.09788696741
 32
0.0
 13
70.6180339887499
 23
108.09788696741
 33
0.0
  0
SOLID
  5
247
100
AcDbEntity
  8
画層0
100
AcDbTrace
 10
71.984229402629
 20
109.749333532871
 30
0.0
 11
70.6180339887499
 21
108.09788696741
 31
0.0
 12
70.8515585831302
 22
108.190345895068
 32
0.0
 13
70.8515585831302
 23
108.190345895068
 33
0.0
  0
SOLID
  5
248
100
AcDbEntity
  8
画層0
100
AcDbTrace
 10
71.984229402629
 20
109.749333532871
 30
0.0
 11
70.8515585831302
 21
108.190345895068
 31
0.0
 12
71.071653589958
 22
108.311344148996
 32
0.0
 13
71.071653589958
 23
108.311344148996
 33
0.0
  0
SOLID
  5
249
100
AcDbEntity
  8
画層0
100
AcDbTrace
 10
71.984229402629
 20
109.749333532871
 30
0.0
 11
71.071653589958
 21
108.311344148996
 31
0.0
 12
71.2748479794974
 22
108.458973514448
 32
0.0
 13
71.2748479794974
 23
108.458973514448
 33
0.0
  0
SOLID
  5
24A
100
AcDbEntity
  8
画層0
100
AcDbTrace
 10
71.984229402629
 20
109.749333532871
 30
0.0
 11
71.2748479794974
 21
108.458973514448
 31
0.0
 12
71.4579372548428
 22
108.630905788143
 32
0.0
 13
71.4579372548428
 23
108.630905788143
 33
0.0
  0
SOLID
  5
24B
100
AcDbEntity
  8
画層0
100
AcDbTrace
 10
71.984229402629
 20
109.749333532871
 30
0.0
 11
71.4579372548428
 21
108.630905788143
 31
0.0
 12
71.6180339887499
 22
108.824429495415
 32
0.0
 13
71.6180339887499
 23
108.824429495415
 33
0.0
  0
SOLID
  5
24C
100
AcDbEntity
  8
画層0
100
AcDbTrace
 10
71.984229402629
 20
109.749333532871
 30
0.0
 11
71.6180339887499
 21
108.824429495415
 31
0.0
 12
71.7526133600877
 22
109.036492651797
 32
0.0
 13
71.7526133600877
 23
109.036492651797
 33
0.0
  0
SOLID
  5
24D
100
AcDbEntity
  8
画層0
100
AcDbTrace
 10
71.984229402629
 20
109.749333532871
 30
0.0
 11
71.7526133600877
 21
109.036492651797
 31
0.0
 12
71.8595529717765
 22
109.263750894631
 32
0.0
 13
71.8595529717765
 23
109.263750894631
 33
0.0
  0
SOLID
  5
24E
100
AcDbEntity
  8
画層0
100
AcDbTrace
 10
71.984229402629
 20
109.749333532871
 30
0.0
 11
71.8595529717765
 21
109.263750894631
 31
0.0
 12
71.9371663222573
 22
109.50262022567
 32
0.0
 13
71.9371663222573
 23
109.50262022567
 33
0.0
  0
CIRCLE
  5
24F
100
AcDbEntity
  8
画層0
100
AcDbCircle
  6
CONTINUOUS
 10
210
 20
110
 40
2
  0
SOLID
  5
250
100
AcDbEntity
  8
画層0
100
AcDbTrace
 10
211.984229402629
 20
109.749333532871
 30
0.0
 11
212
 21
110
 31
0.0
 12
211.984229402629
 22
110.250666467129
 32
0.0
 13
211.984229402629
 23
110.250666467129
 33
0.0
  0
SOLID
  5
251
100
AcDbEntity
  8
画層0
100
AcDbTrace
 10
211.984229402629
 20
109.749333532871
 30
0.0
 11
211.984229402629
 21
110.250666467129
 31
0.0
 12
211.937166322257
 22
110.49737977433
 32
0.0
 13
211.937166322257
 23
110.49737977433
 33
0.0
  0
SOLID
  5
252
100
AcDbEntity
  8
画層0
100
AcDbTrace
 10
211.984229402629
 20
109.749333532871
 30
0.0
 11
211.937166322257
 21
110.49737977433
 31
0.0
 12
211.859552971777
 22
110.736249105369
 32
0.0
 13
211.859552971777
 23
110.736249105369
 33
0.0
  0
SOLID
  5
253
100
AcDbEntity
  8
画層0
100
AcDbTrace
 10
211.984229402629
 20
109.749333532871
 30
0.0
 11
211.859552971777
 21
110.736249105369
 31
0.0
 12
211.752613360088
 22
110.963507348203
 32
0.0
 13
211.752613360088
 23
110.963507348203
 33
0.0
  0
SOLID
  5
254
100
AcDbEntity
  8
画層0
100
AcDbTrace
 10
211.984229402629
 20
109.749333532871
 30
0.0
 11
211.752613360088
 21
110.963507348203
 31
0.0
 12
211.61803398875
 22
111.175570504585
 32
0.0
 13
211.61803398875
 23
111.175570504585
 33
0.0
  0
SOLID
  5
255
100
AcDbEntity
  8
画層0
100
AcDbTrace
 10
211.984229402629
 20
109.749333532871
 30
0.0
 11
211.61803398875
 21
111.175570504585
 31
0.0
 12
211.457937254843
 22
111.369094211857
 32
0.0
 13
211.457937254843
 23
111.369094211857
 33
0.0
  0
SOLID
  5
256
100
AcDbEntity
  8
画層0
100
AcDbTrace
 10
211.984229402629
 20
109.749333532871
 30
0.0
 11
211.457937254843
 21
111.369094211857
 31
0.0
 12
211.274847979497
 22
111.541026485552
 32
0.0
 13
211.274847979497
 23
111.541026485552
 33
0.0
  0
SOLID
  5
257
100
AcDbEntity
  8
画層0
100
AcDbTrace
 10
211.984229402629
 20
109.749333532871
 30
0.0
 11
211.274847979497
 21
111.541026485552
 31
0.0
 12
211.071653589958
 22
111.688655851004
 32
0.0
 13
211.071653589958
 23
111.688655851004
 33
0.0
  0
SOLID
  5
258
100
AcDbEntity
  8
画層0
100
AcDbTrace
 10
211.984229402629
 20
109.749333532871
 30
0.0
 11
211.071653589958
 21
111.688655851004
 31
0.0
 12
210.85155858313
 22
111.809654104932
 32
0.0
 13
210.85155858313
 23
111.809654104932
 33
0.0
  0
SOLID
  5
259
100
AcDbEntity
  8
画層0
100
AcDbTrace
 10
211.984229402629
 20
109.749333532871
 30
0.0
 11
210.85155858313
 21
111.809654104932
 31
0.0
 12
210.61803398875
 22
111.90211303259
 32
0.0
 13
210.61803398875
 23
111.90211303259
 33
0.0
  0
SOLID
  5
25A
100
AcDbEntity
  8
画層0
100
AcDbTrace
 10
211.984229402629
 20
109.749333532871
 30
0.0
 11
210.61803398875
 21
111.90211303259
 31
0.0
 12
210.374762629171
 22
111.964574501457
 32
0.0
 13
210.374762629171
 23
111.964574501457
 33
0.0
  0
SOLID
  5
25B
100
AcDbEntity
  8
画層0
100
AcDbTrace
 10
211.984229402629
 20
109.749333532871
 30
0.0
 11
210.374762629171
 21
111.964574501457
 31
0.0
 12
210.125581039059
 22
111.996053456857
 32
0.0
 13
210.125581039059
 23
111.996053456857
 33
0.0
  0
SOLID
  5
25C
100
AcDbEntity
  8
画層0
100
AcDbTrace
 10
211.984229402629
 20
109.749333532871
 30
0.0
 11
210.125581039059
 21
111.996053456857
 31
0.0
 12
209.874418960941
 22
111.996053456857
 32
0.0
 13
209.874418960941
 23
111.996053456857
 33
0.0
  0
SOLID
  5
25D
100
AcDbEntity
  8
画層0
100
AcDbTrace
 10
211.984229402629
 20
109.749333532871
 30
0.0
 11
209.874418960941
 21
111.996053456857
 31
0.0
 12
209.625237370829
 22
111.964574501457
 32
0.0
 13
209.625237370829
 23
111.964574501457
 33
0.0
  0
SOLID
  5
25E
100
AcDbEntity
  8
画層0
100
AcDbTrace
 10
211.984229402629
 20
109.749333532871
 30
0.0
 11
209.625237370829
 21
111.964574501457
 31
0.0
 12
209.38196601125
 22
111.90211303259
 32
0.0
 13
209.38196601125
 23
111.90211303259
 33
0.0
  0
SOLID
  5
25F
100
AcDbEntity
  8
画層0
100
AcDbTrace
 10
211.984229402629
 20
109.749333532871
 30
0.0
 11
209.38196601125
 21
111.90211303259
 31
0.0
 12
209.14844141687
 22
111.809654104932
 32
0.0
 13
209.14844141687
 23
111.809654104932
 33
0.0
  0
SOLID
  5
260
100
AcDbEntity
  8
画層0
100
AcDbTrace
 10
211.984229402629
 20
109.749333532871
 30
0.0
 11
209.14844141687
 21
111.809654104932
 31
0.0
 12
208.928346410042
 22
111.688655851004
 32
0.0
 13
208.928346410042
 23
111.688655851004
 33
0.0
  0
SOLID
  5
261
100
AcDbEntity
  8
画層0
100
AcDbTrace
 10
211.984229402629
 20
109.749333532871
 30
0.0
 11
208.928346410042
 21
111.688655851004
 31
0.0
 12
208.725152020503
 22
111.541026485552
 32
0.0
 13
208.725152020503
 23
111.541026485552
 33
0.0
  0
SOLID
  5
262
100
AcDbEntity
  8
画層0
100
AcDbTrace
 10
211.984229402629
 20
109.749333532871
 30
0.0
 11
208.725152020503
 21
111.541026485552
 31
0.0
 12
208.542062745157
 22
111.369094211857
 32
0.0
 13
208.542062745157
 23
111.369094211857
 33
0.0
  0
SOLID
  5
263
100
AcDbEntity
  8
画層0
100
AcDbTrace
 10
211.984229402629
 20
109.749333532871
 30
0.0
 11
208.542062745157
 21
111.369094211857
 31
0.0
 12
208.38196601125
 22
111.175570504585
 32
0.0
 13
208.38196601125
 23
111.175570504585
 33
0.0
  0
SOLID
  5
264
100
AcDbEntity
  8
画層0
100
AcDbTrace
 10
211.984229402629
 20
109.749333532871
 30
0.0
 11
208.38196601125
 21
111.175570504585
 31
0.0
 12
208.247386639912
 22
110.963507348203
 32
0.0
 13
208.247386639912
 23
110.963507348203
 33
0.0
  0
SOLID
  5
265
100
AcDbEntity
  8
画層0
100
AcDbTrace
 10
211.984229402629
 20
109.749333532871
 30
0.0
 11
208.247386639912
 21
110.963507348203
 31
0.0
 12
208.140447028223
 22
110.736249105369
 32
0.0
 13
208.140447028223
 23
110.736249105369
 33
0.0
  0
SOLID
  5
266
100
AcDbEntity
  8
画層0
100
AcDbTrace
 10
211.984229402629
 20
109.749333532871
 30
0.0
 11
208.140447028223
 21
110.736249105369
 31
0.0
 12
208.062833677743
 22
110.49737977433
 32
0.0
 13
208.062833677743
 23
110.49737977433
 33
0.0
  0
SOLID
  5
267
100
AcDbEntity
  8
画層0
100
AcDbTrace
 10
211.984229402629
 20
109.749333532871
 30
0.0
 11
208.062833677743
 21
110.49737977433
 31
0.0
 12
208.015770597371
 22
110.250666467129
 32
0.0
 13
208.015770597371
 23
110.250666467129
 33
0.0
  0
SOLID
  5
268
100
AcDbEntity
  8
画層0
100
AcDbTrace
 10
211.984229402629
 20
109.749333532871
 30
0.0
 11
208.015770597371
 21
110.250666467129
 31
0.0
 12
208
 22
110
 32
0.0
 13
208
 23
110
 33
0.0
  0
SOLID
  5
269
100
AcDbEntity
  8
画層0
100
AcDbTrace
 10
211.984229402629
 20
109.749333532871
 30
0.0
 11
208
 21
110
 31
0.0
 12
208.015770597371
 22
109.749333532871
 32
0.0
 13
208.015770597371
 23
109.749333532871
 33
0.0
  0
SOLID
  5
26A
100
AcDbEntity
  8
画層0
100
AcDbTrace
 10
211.984229402629
 20
109.749333532871
 30
0.0
 11
208.015770597371
 21
109.749333532871
 31
0.0
 12
208.062833677743
 22
109.50262022567
 32
0.0
 13
208.062833677743
 23
109.50262022567
 33
0.0
  0
SOLID
  5
26B
100
AcDbEntity
  8
画層0
100
AcDbTrace
 10
211.984229402629
 20
109.749333532871
 30
0.0
 11
208.062833677743
 21
109.50262022567
 31
0.0
 12
208.140447028223
 22
109.263750894631
 32
0.0
 13
208.140447028223
 23
109.263750894631
 33
0.0
  0
SOLID
  5
26C
100
AcDbEntity
  8
画層0
100
AcDbTrace
 10
211.984229402629
 20
109.749333532871
 30
0.0
 11
208.140447028223
 21
109.263750894631
 31
0.0
 12
208.247386639912
 22
109.036492651797
 32
0.0
 13
208.247386639912
 23
109.036492651797
 33
0.0
  0
SOLID
  5
26D
100
AcDbEntity
  8
画層0
100
AcDbTrace
 10
211.984229402629
 20
109.749333532871
 30
0.0
 11
208.247386639912
 21
109.036492651797
 31
0.0
 12
208.38196601125
 22
108.824429495415
 32
0.0
 13
208.38196601125
 23
108.824429495415
 33
0.0
  0
SOLID
  5
26E
100
AcDbEntity
  8
画層0
100
AcDbTrace
 10
211.984229402629
 20
109.749333532871
 30
0.0
 11
208.38196601125
 21
108.824429495415
 31
0.0
 12
208.542062745157
 22
108.630905788143
 32
0.0
 13
208.542062745157
 23
108.630905788143
 33
0.0
  0
SOLID
  5
26F
100
AcDbEntity
  8
画層0
100
AcDbTrace
 10
211.984229402629
 20
109.749333532871
 30
0.0
 11
208.542062745157
 21
108.630905788143
 31
0.0
 12
208.725152020503
 22
108.458973514448
 32
0.0
 13
208.725152020503
 23
108.458973514448
 33
0.0
  0
SOLID
  5
270
100
AcDbEntity
  8
画層0
100
AcDbTrace
 10
211.984229402629
 20
109.749333532871
 30
0.0
 11
208.725152020503
 21
108.458973514448
 31
0.0
 12
208.928346410042
 22
108.311344148996
 32
0.0
 13
208.928346410042
 23
108.311344148996
 33
0.0
  0
SOLID
  5
271
100
AcDbEntity
  8
画層0
100
AcDbTrace
 10
211.984229402629
 20
109.749333532871
 30
0.0
 11
208.928346410042
 21
108.311344148996
 31
0.0
 12
209.14844141687
 22
108.190345895068
 32
0.0
 13
209.14844141687
 23
108.190345895068
 33
0.0
  0
SOLID
  5
272
100
AcDbEntity
  8
画層0
100
AcDbTrace
 10
211.984229402629
 20
109.749333532871
 30
0.0
 11
209.14844141687
 21
108.190345895068
 31
0.0
 12
209.38196601125
 22
108.09788696741
 32
0.0
 13
209.38196601125
 23
108.09788696741
 33
0.0
  0
SOLID
  5
273
100
AcDbEntity
  8
画層0
100
AcDbTrace
 10
211.984229402629
 20
109.749333532871
 30
0.0
 11
209.38196601125
 21
108.09788696741
 31
0.0
 12
209.625237370829
 22
108.035425498543
 32
0.0
 13
209.625237370829
 23
108.035425498543
 33
0.0
  0
SOLID
  5
274
100
AcDbEntity
  8
画層0
100
AcDbTrace
 10
211.984229402629
 20
109.749333532871
 30
0.0
 11
209.625237370829
 21
108.035425498543
 31
0.0
 12
209.874418960941
 22
108.003946543143
 32
0.0
 13
209.874418960941
 23
108.003946543143
 33
0.0
  0
SOLID
  5
275
100
AcDbEntity
  8
画層0
100
AcDbTrace
 10
211.984229402629
 20
109.749333532871
 30
0.0
 11
209.874418960941
 21
108.003946543143
 31
0.0
 12
210.125581039059
 22
108.003946543143
 32
0.0
 13
210.125581039059
 23
108.003946543143
 33
0.0
  0
SOLID
  5
276
100
AcDbEntity
  8
画層0
100
AcDbTrace
 10
211.984229402629
 20
109.749333532871
 30
0.0
 11
210.125581039059
 21
108.003946543143
 31
0.0
 12
210.374762629171
 22
108.035425498543
 32
0.0
 13
210.374762629171
 23
108.035425498543
 33
0.0
  0
SOLID
  5
277
100
AcDbEntity
  8
画層0
100
AcDbTrace
 10
211.984229402629
 20
109.749333532871
 30
0.0
 11
210.374762629171
 21
108.035425498543
 31
0.0
 12
210.61803398875
 22
108.09788696741
 32
0.0
 13
210.61803398875
 23
108.09788696741
 33
0.0
  0
SOLID
  5
278
100
AcDbEntity
  8
画層0
100
AcDbTrace
 10
211.984229402629
 20
109.749333532871
 30
0.0
 11
210.61803398875
 21
108.09788696741
 31
0.0
 12
210.85155858313
 22
108.190345895068
 32
0.0
 13
210.85155858313
 23
108.190345895068
 33
0.0
  0
SOLID
  5
279
100
AcDbEntity
  8
画層0
100
AcDbTrace
 10
211.984229402629
 20
109.749333532871
 30
0.0
 11
210.85155858313
 21
108.190345895068
 31
0.0
 12
211.071653589958
 22
108.311344148996
 32
0.0
 13
211.071653589958
 23
108.311344148996
 33
0.0
  0
SOLID
  5
27A
100
AcDbEntity
  8
画層0
100
AcDbTrace
 10
211.984229402629
 20
109.749333532871
 30
0.0
 11
211.071653589958
 21
108.311344148996
 31
0.0
 12
211.274847979497
 22
108.458973514448
 32
0.0
 13
211.274847979497
 23
108.458973514448
 33
0.0
  0
SOLID
  5
27B
100
AcDbEntity
  8
画層0
100
AcDbTrace
 10
211.984229402629
 20
109.749333532871
 30
0.0
 11
211.274847979497
 21
108.458973514448
 31
0.0
 12
211.457937254843
 22
108.630905788143
 32
0.0
 13
211.457937254843
 23
108.630905788143
 33
0.0
  0
SOLID
  5
27C
100
AcDbEntity
  8
画層0
100
AcDbTrace
 10
211.984229402629
 20
109.749333532871
 30
0.0
 11
211.457937254843
 21
108.630905788143
 31
0.0
 12
211.61803398875
 22
108.824429495415
 32
0.0
 13
211.61803398875
 23
108.824429495415
 33
0.0
  0
SOLID
  5
27D
100
AcDbEntity
  8
画層0
100
AcDbTrace
 10
211.984229402629
 20
109.749333532871
 30
0.0
 11
211.61803398875
 21
108.824429495415
 31
0.0
 12
211.752613360088
 22
109.036492651797
 32
0.0
 13
211.752613360088
 23
109.036492651797
 33
0.0
  0
SOLID
  5
27E
100
AcDbEntity
  8
画層0
100
AcDbTrace
 10
211.984229402629
 20
109.749333532871
 30
0.0
 11
211.752613360088
 21
109.036492651797
 31
0.0
 12
211.859552971777
 22
109.263750894631
 32
0.0
 13
211.859552971777
 23
109.263750894631
 33
0.0
  0
SOLID
  5
27F
100
AcDbEntity
  8
画層0
100
AcDbTrace
 10
211.984229402629
 20
109.749333532871
 30
0.0
 11
211.859552971777
 21
109.263750894631
 31
0.0
 12
211.937166322257
 22
109.50262022567
 32
0.0
 13
211.937166322257
 23
109.50262022567
 33
0.0
  0
LWPOLYLINE
  5
280
100
AcDbEntity
  8
画層0
100
AcDbPolyline
  6
CONTINUOUS
 90
     4
 70
     1
 10
60
  20
74
 10
80
  20
74
 10
80
  20
76
 10
60
  20
76
  0
SOLID
  5
281
100
AcDbEntity
  8
画層0
100
AcDbTrace
 10
60
 20
74
 30
0.0
 11
80
 21
74
 31
0.0
 12
60
 22
76
 32
0.0
 13
80
 23
76
 33
0.0
  0
LWPOLYLINE
  5
282
100
AcDbEntity
  8
画層0
100
AcDbPolyline
  6
CONTINUOUS
 90
     4
 70
     1
 10
60
  20
64
 10
80
  20
64
 10
80
  20
66
 10
60
  20
66
  0
SOLID
  5
283
100
AcDbEntity
  8
画層0
100
AcDbTrace
 10
60
 20
64
 30
0.0
 11
80
 21
64
 31
0.0
 12
60
 22
66
 32
0.0
 13
80
 23
66
 33
0.0
  0
LINE
  5
284
100
AcDbEntity
  8
画層0
100
AcDbLine
  6
CONTINUOUS
 10
180
 20
20
 11
160
 21
20
  0
LINE
  5
285
100
AcDbEntity
  8
画層0
100
AcDbLine
  6
CONTINUOUS
 10
180
 20
20
 11
173.333333333333
 21
10
  0
LINE
  5
286
100
AcDbEntity
  8
画層0
100
AcDbLine
  6
CONTINUOUS
 10
160
 20
10
 11
166.666666666667
 21
20
  0
LINE
  5
287
100
AcDbEntity
  8
画層0
100
AcDbLine
  6
CONTINUOUS
 10
166.666666666667
 20
10
 11
173.333333333333
 21
20
  0
LINE
  5
288
100
AcDbEntity
  8
画層0
100
AcDbLine
  6
CONTINUOUS
 10
170
 20
30
 11
170
 21
20
  0
LINE
  5
289
100
AcDbEntity
  8
画層0
100
AcDbLine
  6
CONTINUOUS
 10
30
 20
190
 11
25
 21
195
  0
LINE
  5
28A
100
AcDbEntity
  8
画層0
100
AcDbLine
  6
CONTINUOUS
 10
30
 20
190
 11
25
 21
185
  0
LINE
  5
28B
100
AcDbEntity
  8
画層0
100
AcDbLine
  6
CONTINUOUS
 10
10
 20
195
 11
10
 21
185
  0
LINE
  5
28C
100
AcDbEntity
  8
画層0
100
AcDbLine
  6
CONTINUOUS
 10
30
 20
110
 11
25
 21
115
  0
LINE
  5
28D
100
AcDbEntity
  8
画層0
100
AcDbLine
  6
CONTINUOUS
 10
30
 20
110
 11
25
 21
105
  0
LINE
  5
28E
100
AcDbEntity
  8
画層0
100
AcDbLine
  6
CONTINUOUS
 10
10
 20
105
 11
10
 21
115
  0
LINE
  5
28F
100
AcDbEntity
  8
画層0
100
AcDbLine
  6
CONTINUOUS
 10
25
 20
195
 11
10
 21
195
  0
LINE
  5
290
100
AcDbEntity
  8
画層0
100
AcDbLine
  6
CONTINUOUS
 10
25
 20
185
 11
10
 21
185
  0
LINE
  5
291
100
AcDbEntity
  8
画層0
100
AcDbLine
  6
CONTINUOUS
 10
25
 20
115
 11
10
 21
115
  0
LINE
  5
292
100
AcDbEntity
  8
画層0
100
AcDbLine
  6
CONTINUOUS
 10
25
 20
105
 11
10
 21
105
  0
LINE
  5
293
100
AcDbEntity
  8
画層0
100
AcDbLine
  6
CONTINUOUS
 10
160
 20
19
 11
180
 21
19
  0
LINE
  5
294
100
AcDbEntity
  8
画層0
100
AcDbLine
  6
CONTINUOUS
 10
160
 20
21
 11
180
 21
21
  0
LWPOLYLINE
  5
295
100
AcDbEntity
  8
画層0
100
AcDbPolyline
  6
CONTINUOUS
 90
     4
 70
     1
 10
180
  20
19
 10
160
  20
19
 10
160
  20
21
 10
180
  20
21
  0
SOLID
  5
296
100
AcDbEntity
  8
画層0
100
AcDbTrace
 10
180
 20
19
 30
0.0
 11
160
 21
19
 31
0.0
 12
180
 22
21
 32
0.0
 13
160
 23
21
 33
0.0
  0
LINE
  5
297
100
AcDbEntity
  8
画層0
100
AcDbLine
  6
CONTINUOUS
 10
80
 20
20
 11
60
 21
20
  0
LINE
  5
298
100
AcDbEntity
  8
画層0
100
AcDbLine
  6
CONTINUOUS
 10
80
 20
20
 11
73.3333333333333
 21
10
  0
LINE
  5
299
100
AcDbEntity
  8
画層0
100
AcDbLine
  6
CONTINUOUS
 10
60
 20
10
 11
66.6666666666667
 21
20
  0
LINE
  5
29A
100
AcDbEntity
  8
画層0
100
AcDbLine
  6
CONTINUOUS
 10
66.6666666666667
 20
10
 11
73.3333333333333
 21
20
  0
LINE
  5
29B
100
AcDbEntity
  8
画層0
100
AcDbLine
  6
CONTINUOUS
 10
70
 20
30
 11
70
 21
20
  0
LINE
  5
29C
100
AcDbEntity
  8
画層0
100
AcDbLine
  6
CONTINUOUS
 10
60
 20
19
 11
80
 21
19
  0
LINE
  5
29D
100
AcDbEntity
  8
画層0
100
AcDbLine
  6
CONTINUOUS
 10
60
 20
21
 11
80
 21
21
  0
LWPOLYLINE
  5
29E
100
AcDbEntity
  8
画層0
100
AcDbPolyline
  6
CONTINUOUS
 90
     4
 70
     1
 10
80
  20
19
 10
60
  20
19
 10
60
  20
21
 10
80
  20
21
  0
SOLID
  5
29F
100
AcDbEntity
  8
画層0
100
AcDbTrace
 10
80
 20
19
 30
0.0
 11
60
 21
19
 31
0.0
 12
80
 22
21
 32
0.0
 13
60
 23
21
 33
0.0
  0
LINE
  5
2A0
100
AcDbEntity
  8
画層0
100
AcDbLine
  6
CONTINUOUS
 10
220
 20
20
 11
200
 21
20
  0
LINE
  5
2A1
100
AcDbEntity
  8
画層0
100
AcDbLine
  6
CONTINUOUS
 10
220
 20
20
 11
213.333333333333
 21
10
  0
LINE
  5
2A2
100
AcDbEntity
  8
画層0
100
AcDbLine
  6
CONTINUOUS
 10
200
 20
10
 11
206.666666666667
 21
20
  0
LINE
  5
2A3
100
AcDbEntity
  8
画層0
100
AcDbLine
  6
CONTINUOUS
 10
206.666666666667
 20
10
 11
213.333333333333
 21
20
  0
LINE
  5
2A4
100
AcDbEntity
  8
画層0
100
AcDbLine
  6
CONTINUOUS
 10
210
 20
30
 11
210
 21
20
  0
LINE
  5
2A5
100
AcDbEntity
  8
画層0
100
AcDbLine
  6
CONTINUOUS
 10
200
 20
19
 11
220
 21
19
  0
LINE
  5
2A6
100
AcDbEntity
  8
画層0
100
AcDbLine
  6
CONTINUOUS
 10
200
 20
21
 11
220
 21
21
  0
LWPOLYLINE
  5
2A7
100
AcDbEntity
  8
画層0
100
AcDbPolyline
  6
CONTINUOUS
 90
     4
 70
     1
 10
220
  20
19
 10
200
  20
19
 10
200
  20
21
 10
220
  20
21
  0
SOLID
  5
2A8
100
AcDbEntity
  8
画層0
100
AcDbTrace
 10
220
 20
19
 30
0.0
 11
200
 21
19
 31
0.0
 12
220
 22
21
 32
0.0
 13
200
 23
21
 33
0.0
  0
LINE
  5
2A9
100
AcDbEntity
  8
画層0
100
AcDbLine
  6
CONTINUOUS
 10
255
 20
105
 11
250
 21
110
  0
LINE
  5
2AA
100
AcDbEntity
  8
画層0
100
AcDbLine
  6
CONTINUOUS
 10
255
 20
115
 11
250
 21
110
  0
LINE
  5
2AB
100
AcDbEntity
  8
画層0
100
AcDbLine
  6
CONTINUOUS
 10
270
 20
115
 11
270
 21
105
  0
LINE
  5
2AC
100
AcDbEntity
  8
画層0
100
AcDbLine
  6
CONTINUOUS
 10
255
 20
105
 11
270
 21
105
  0
LINE
  5
2AD
100
AcDbEntity
  8
画層0
100
AcDbLine
  6
CONTINUOUS
 10
255
 20
115
 11
270
 21
115
  0
LINE
  5
2AE
100
AcDbEntity
  8
画層0
100
AcDbLine
  6
CONTINUOUS
 10
170
 20
85
 11
170
 21
90
  0
LINE
  5
2AF
100
AcDbEntity
  8
画層0
100
AcDbLine
  6
CONTINUOUS
 10
170
 20
70
 11
170
 21
55
  0
TEXT
  5
2B0
100
AcDbEntity
  8
画層0
 62
7
100
AcDbText
  6
CONTINUOUS
 62
7
 10
226.347014243974
 20
12.8809612399562
 40
2
  1
CMOS Inverter
  7
Font_0
 11
226.347014243974
 21
14.8809612399562
100
AcDbText
 73
3
  0
TEXT
  5
2B1
100
AcDbEntity
  8
画層0
 62
7
100
AcDbText
  6
CONTINUOUS
 62
7
 10
226.347014243974
 20
10.8809612399562
 40
2
  1
hhttp://www.ab.auone-net.jp/~a-t/spice/spice_CMOS-Inverter.html
  7
Font_0
 11
226.347014243974
 21
12.8809612399562
100
AcDbText
 73
3
  0
ENDSEC
  0
SECTION
  2
OBJECTS
  0
DICTIONARY
  5
2B2
100
AcDbDictionary
  3
ACAD_GROUP
350
2B3
  3
ACAD_MLINESTYLE
350
2B4
  0
DICTIONARY
  5
2B3
102
{ACAD_REACTORS
330
2B2
102
}
100
AcDbDictionary
  0
DICTIONARY
  5
2B4
102
{ACAD_REACTORS
330
2B2
102
}
100
AcDbDictionary
  3
STANDARD
350
2B5
  0
MLINESTYLE
  5
2B5
102
{ACAD_REACTORS
330
2B4
102
}
100
AcDbMlineStyle
  2
Standard
 70
     0
  3

 62
     0
 51
90.0
 52
90.0
 71
     2
 49
0.5
 62
   256
  6
ByLayer
 49
-0.5
 62
   256
  6
ByLayer
  0
ENDSEC
  0
EOF
